My Dying Bride - My Body A Funeral tab

-------------------------------------------------------------------------------
			    MY BODY A FUNERAL - My Dying Bride
-------------------------------------------------------------------------------
Tabbed by: My Dying Bride.
Email: moraj.vip@gmail.com

http://www.youtube.com/user/morajj1

http://www.youtube.com/watch?v=KRZl-Lwu0TY&feature=channel_video_title

Tuning: Tune Down 1 & 1/2 Steps
         C# F# B E G# C#


-------------------------------------------------------------------------------
RIFF 1 - ANDREW CLEAN GUITAR

C#|----------------------------------------------------------------------------------------|
G#|------6---------------------------------------------------------------------------------|
E |----7------------------------7-------------------3--------------------------------------|
B |--0------------------------8-------------------5------------------5/7-7-----7/10--10h12-|
F#|-----------8---7---5--------------8---7---5-----------8---7---5-------------------------|
C#|----------------------------------------------------------------------------------------|

RIFF 1 - HAMISH CLEAN GUITAR

C#|----------------------------------------------------------------------------------------|
G#|----------------------------------------------------------------------------------------|
E |----------------------------------------------------------------------------------------|
B |-------------------7----------------------7-8---------------------5/7-7-----------------|
F#|---------------------7------------------------------------------------------------------|
C#|----------------------------------------------------------------------------------------|

RIFF 2 - ANDREW DISTORTED GUITAR

C#|------------------------------------------------------------------------------------------|
G#|------------------------------------------------------------------------------------------|
E |------------------------------------------------------------------------------------------|
B |--7----------------------8----------------------5----------------------7------------------|
F#|--5-------/8---7---5-----8-------/8---7---5-----5-------/8---7---5-----7---------7--7-8---|
C#|--5----------------------6----------------------3----------------------5------------------|

C#|------------------------------------------------------------------------------------------|
G#|------------------------------------------------------------------------------------------|
E |------------------------------------------------------------------------------------------|
B |--7----------------------8----------------------5----------------------7------------------|
F#|--5-------/8---7---5-----8-------/8---7---5-----5-------/8---7---5-----7---------7--7-8---|
C#|--5----------------------6----------------------3----------------------5------------------|

RIFF 2 - HAMISH DISTORTED GUITAR

C#|------------------------------------------------------------------------------------------|
G#|------------------------------------------------------------------------------------------|
E |------------------------------------------------------------------------------------------|
B |--7-------/7---5---3-----8-------/7---5---7-----5-------/7---5---3-----7---------5--5-7---|
F#|--5----------------------5----------------------5----------------------7------------------|
C#|--5----------------------6----------------------3----------------------5------------------|

C#|------------------------------------------------------------------------------------------|
G#|------------------------------------------------------------------------------------------|
E |-----------------------------------------------------------------5-----7-v----------------|
B |--7-------/7---5---3-----8-------/7---5---7-----5-------/7---5-------------------5--5-7---|
F#|--5----------------------5----------------------5-----------------------------------------|
C#|--5----------------------6----------------------3-----------------------------------------|

RIFF 3 - ANDREW

C#|------------------------------------------------------------------------------------------|
G#|------------------------------------------------------------------------------------------|
E |------------------------------------------------------------------------------------------|
B |--7----------------------8-------------------3---5-----------------3---7------------------|
F#|--5----------------------5-------------------3---5-----------------3---7---------7--7-8---|
C#|--5----------------------6-------------------1---3-----------------1---5------------------|

RIFF 3 - HAMISH


C#|------------------------------------------------------------------------------------------|
G#|------------------------------------------------------------------------------------------|
E |------------------------------------------------------------------------------------------|
B |--7----------------------8-------------------3---5-----------------3---7---------5--5-7---|
F#|--5----------------------5-------------------3---5-----------------3---7------------------|
C#|--5----------------------6-------------------1---3-----------------1---5------------------|


RIFF 4 - BOTH GUITARS UNISON



C#|-------------------------------------------------------------------------2---------1-------|
G#|-------------------------------------------------------------------------2---------1-------|
E |-------------------------------------------------------------------------2---------1-------|
B |--2------------4--4--5------------2--2--4------------2--2--5-----------4---------3---------|
F#|--2------------4--4--5------------2--2--4------------2--2--5-----------4---------3---------|
C#|--0------------2--2--3------------0--0--2------------0--0--3-----------2---------1---------|

RIFF 5 - BOTH GUITARS UNISON
SINGLE EB (FRET 2) PLAYED TWICE ON THE BOTTOM C# STRING. PUNCTUATING THE DRUM FILLS. 
THEN BEND INTO NEXT RIFF

RIFF 6 - ANDREW


C#|----------------------------------------------------------------------------------------------|
G#|----------------------------------------------------------------------------------------------|
E |-------5-p-4-------------------5-p-4-----------------5-p-4------------------5-p-4-------------|
B |-------------5---/7-7-\2-------------5---------------------5---/7-7-\2------------5----/7-7*--|
F#|----------------------------------------------------------------------------------------------|
C#|--2--2-------------------2--2-------------------2--2-------------------2-2--------------------|

RIFF 5 - HAMISH

C#|----------------------------------------------------------------------------------------------|
G#|----------------------------------------------------------------------------------------------|
E |-------5-p-4-------------------5-p-4-----------------5-p-4------------------5-p-4-------------|
B |-------------5-----------------------5---/7-7-\2-----------5----------------------5----/7-7*--|
F#|----------------------------------------------------------------------------------------------|
C#|--2--2-------------------2--2-------------------2--2-------------------2-2--------------------|

RIFF 7 - BOTH GUITARS UNISON
C#|---------------------------------|
G#|---------------------------------|
E |---------------------------------|
B |---------------------------------|
F#|---------------------------------|
C#|--2---2---2---2b-2---2---2---2---|  BEND THE EB TO THE PITCH OF E (FRET 2)






************************************

| /   slide up
| \   slide down
| h   hammer-on
| p   pull-off
| v   vibrato
| *   pinch harmonic
| x   Mute note
| b   Bend
| pb  Pre-bend
| br  Bend release
| pbr Pre-bend release
| brb Bend release bend

************************************
Tap to rate this tab
 
# A B C D E F G H I J K L M N O P Q R S T U V W X Y Z