Song name
# A B C D E F G H I J K L M N O P Q R S T U V W X Y Z

My Dying Bride - Like Gods Of The Sun tab

My Dying Bride: Like Gods of the Sun


E:|---------------------------------------------------------------------------
B:|---------------------------------------------------------------------------
G:|---------------------------------------------------------------------------
D:|---------------------------------------------------------------------------
A:|--2-2-------------------------2-2-------------------------2-2--------------
E:|--0-0--2-3-5-3-7--5-3-5--3-2--0-0--2-3-5-3-7--5-3-5--3-2--0-0--2-3-5-3-7--5

E:----------|-----------------------------------------------------------------
B:----------|-----------------------------------------------------------------
G:----------|-----------------------------------------------------------------
D:----------|-----------------------------------------------------------------
A:----------|--2-2--4-5-7-5-9--9\-2-2--4-5-7-5-9--7-5-7--5-4------------------
E:-3-5--3-2-|--0-0--2-3-5-3-7--7\-0-0--2-3-5-3-7--5-3-5--3-2------------------
                                               "I live for your..."
Tap to rate this tab
# A B C D E F G H I J K L M N O P Q R S T U V W X Y Z