Guitaretab - guitar tabs
Song name
# A B C D E F G H I J K L M N O P Q R S T U V W X Y Z

My Dying Bride - Lamour Detruit tab

-------------------------------------------------------------------------------
			     L'amour Detruit - My dying bride
-------------------------------------------------------------------------------
Tabbed by:MoMo
Email:felipe_morado@hotmail.com

Tuning:standard
Guitar #1 only
riff 1:
e|------------------------------------------------------------------------------|
B|------------------------------------------------------------------------------|
G|------------------------------------------------------------------------------|
D|-----5-/-7-7~~-5-5-/-7-7~--2-/-3-3~~-3-/-5-5~---3-3-/-5-5~~-8p7-7~------------|
A|---5--------------------------------------------------------------------------|
E|-5----------------------------------------------------------------------------|

Passage:
e|-----------------------------------------------------------------------------|
B|-----------------------------------------------------------------------------|
G|-----------------------------------------------------------------------------|
D|-----5-/-7-7~~-5-5-/-7-7~--2-h3-3~---3-/-5-5~-5-/-7-7~--//8/7-7~~------------|
A|---5------------------------0-h1-1----1-/-3-3--3-/-5-5~----6/5-5-------------|
E|-5---------------------------------------------------------------------------|

riff 1 again for verse ending in
e|-----------------------------------------------------------------------------|
B|-11---11h13p11-10~-----------------------------------------------------------|
G|-----------------------------------------------------------------------------|
D|-----------------------------------------------------------------------------|
A|-----------------------------------------------------------------------------|
E|-----------------------------------------------------------------------------|
[ Tab from: http://www.guitaretab.com/m/my-dying-bride/90226.html ]
riff 2
e|-----------------------------------------------------------------------------|
B|-----------------------------------------------------------------------------|
G|-----------------------------------------------------------------------------|
D|-7/8----7----7-7-7-7~~-5-5-5~~~--5-5---5-5-x-3-~-----------------------------|
A|-0---00-0-00-x-x-x-x---x-x-x-----5-5---5-5-x-3-~-----------------------------|
E|--------------3-3-3-3~~3-3-3~~~--3-3---3-3-x-1-~-----------------------------|

riff 1 again. riff 2 again

break: riff 3 a
e|-----------------------------------------------------------------------------|
B|-//17~~/16~~/13~h14~~~~~~~~~-------------------------------------------------|
G|-----------------------------------------------------------------------------|
D|-----------------------------------------------------------------------------|
A|-----------------------------------------------------------------------------|
E|-----------------------------------------------------------------------------|x2

then, while the other guitar is acoustic, this rises slowly: riff 3b
e|----------------------------|
B|----------------------------|
G|----------------------------|
D|----------------------------|
A|-7~~6~~2~3~~~--3+-6+-7------|
E|----------------------------|

a passage with this
e|-----------------------------------------------------------------------------|
B|-----------------------------------------------------------------------------|
G|-9--8--5~~~------------------------------------------------------------------|
D|-9--8--5~~~------------------------------------------------------------------|
A|-7--6--3~~~------------------------------------------------------------------|
E|-----------------------------------------------------------------------------|

then back to riff 3b

this is all ive got for now, ill continue on it, if there are any more relevant riffs in 
song (dont remember, only heard it thus far right now)


| /  slide up
| \  slide down
| h  hammer-on
| p  pull-off
| ~  vibrato
| +  harmonic
| x  Mute note
Related for Lamour Detruit tab
Lamour Detruit chords by My Dying Bride