Guitaretab - guitar tabs
Song name
# A B C D E F G H I J K L M N O P Q R S T U V W X Y Z

My Dying Day - She Loves Me Not tab

Artist: My Dying Day
Album: Wake Up Dead
Song: She Loves Me Not
MYSPACE.COM/WITSENDROCKS


(C-G-C-F-A-D)

Intro (Clean)

D-----------------------------------------------|
A-----------------------------------------------|
F-------5--5--5-------7--7--7-------------------|
C-----3--3--3--3----5--5--5--5----2X------------|
G----3-3--3--3--3--5-5--5--5--5-----------------|
C---3-------------5-----------------------------|

Intro (Distorted)

Guitar 1
D-----------------------------------------|
A-----------------------------------------|
F----5555-7777-4444-----------------------|
C-0-----------------3-3h-0-3-3h-0-3/5-----|
G-0-----------------3-3h-0-3-3h-0-3/5-----|
C-0-----------------3-3h-0-3-3h-0-3/5-----|
                                          4X
D-----------------------------------------|
A-----------------------------------------|
F----5555-4444-2222-----------------------|
C-0-----------------3-3h-0-3-3h-0-3/5-----|
G-0-----------------3-3h-0-3-3h-0-3/5-----|
C-0-----------------3-3h-0-3-3h-0-3/5-----|

Guitar 2
D------------------------------------------|
A------------------------------------------|
F---8888-10101010-7777---------------------|
C-0--------------------3-3h-0-3-3h-0-3/5---|
G-0--------------------3-3h-0-3-3h-0-3/5---|
C-0--------------------3-3h-0-3-3h-0-3/5---|
                                          2X
D------------------------------------------|
A------------------------------------------|
F---8888-7777-5555-------------------------|
C-0----------------3-3h-0-3-3h-0-3/5-------|
G-0----------------3-3h-0-3-3h-0-3/5-------|
C-0----------------3-3h-0-3-3h-0-3/5-------|

Verse 1 (Clean)

D-----------------------------------------|
A-----------------------------------------|
F---5----5----7----7----------------------|
C----3----3----5----5---------------------|4X
G--3--3-3--3-7--5-5--5--------------------|
C-3----3----5----5------------------------|

Bridge
D-----------------------------------------------------------|
A-----------------------------------------------------------|
F-----------------------------------------------------------|
C-----------------------------------------------------------|
G-333333333333-/-555555555555--333333333333-/-555555555555--|
C-333333333333-/-555555555555--333333333333-/-555555555555--|
  pm         X   pm         X  pm         X   pm   X

Chorus
D---------------------------------------------------------|
A---------------------------------------------------------|
F--------------5555-7777-4444--------------5555-7777-4444-|
C-3-3-3-3--5-5----------------3-3-3-3--5-5----------------|
G-3-3-3-3--5-5----------------3-3-3-3--5-5----------------|
C-3-3-3-3--5-5----------------3-3-3-3--5-5----------------|

D-----------------------------------------|
A-----------------------------------------|
F-----------------------------------------|
C-3-3-3-3--5-5-5-5--7-7-7-7--9-9-9/-1010--|
G-3-3-3-3--5-5-5-5--7-7-7-7--9-9-9/-1010--|
C-3-3-3-3--5-5-5-5--7-7-7-7--9-9-9/-1010--|

Main Riff

Guitar 1
D-----------------------------------------|
A-----------------------------------------|
F----5555-7777-4444-----------------------|
C-0-----------------3-3h-0-3-3h-0-3/5-----|
G-0-----------------3-3h-0-3-3h-0-3/5-----|
C-0-----------------3-3h-0-3-3h-0-3/5-----|
                                          4X
D-----------------------------------------|
A-----------------------------------------|
F----5555-4444-2222-----------------------|
C-0-----------------3-3h-0-3-3h-0-3/5-----|
G-0-----------------3-3h-0-3-3h-0-3/5-----|
C-0-----------------3-3h-0-3-3h-0-3/5-----|

Guitar 2
D------------------------------------------|
A------------------------------------------|
F---8888-10101010-7777---------------------|
C-0--------------------3-3h-0-3-3h-0-3/5---|
G-0--------------------3-3h-0-3-3h-0-3/5---|
C-0--------------------3-3h-0-3-3h-0-3/5---|
                                          2X
D------------------------------------------|
A------------------------------------------|
F---8888-7777-5555-------------------------|
C-0----------------3-3h-0-3-3h-0-3/5-------|
G-0----------------3-3h-0-3-3h-0-3/5-------|
C-0----------------3-3h-0-3-3h-0-3/5-------|

Verse 2
[ Tab from: http://www.guitaretab.com/m/my-dying-day/171288.html ]
D-----------------------------------------|
A-----------------------------------------|
F---5----5----7----7----------------------|
C----3----3----5----5---------------------|4X
G--3--3-3--3-7--5-5--5--------------------|
C-3----3----5----5------------------------|

Bridge
D-----------------------------------------------------------|
A-----------------------------------------------------------|
F-----------------------------------------------------------|
C-----------------------------------------------------------|
G-333333333333-/-555555555555--333333333333-/-555555555555--|
C-333333333333-/-555555555555--333333333333-/-555555555555--|
  pm         X   pm         X  pm         X   pm   X

Chorus
D---------------------------------------------------------|
A---------------------------------------------------------|
F--------------5555-7777-4444--------------5555-7777-4444-|
C-3-3-3-3--5-5----------------3-3-3-3--5-5----------------|
G-3-3-3-3--5-5----------------3-3-3-3--5-5----------------|
C-3-3-3-3--5-5----------------3-3-3-3--5-5----------------|

D-----------------------------------------|
A-----------------------------------------|
F-----------------------------------------|
C-3-3-3-3--5-5-5-5--7-7-7-7--9-9-9/-1010--|
G-3-3-3-3--5-5-5-5--7-7-7-7--9-9-9/-1010--|
C-3-3-3-3--5-5-5-5--7-7-7-7--9-9-9/-1010--|


Break Down
D-----------------------------------------|
A-----------------------------------------|
F-----------------------------------------|
C-----------------------------------------|16X
G-0-0-0-0-3-0-0-0-3-----------------------|
C-0-0-0-0-3-0-0-0-3-----------------------|

Chorus
D---------------------------------------------------------|
A---------------------------------------------------------|
F--------------5555-7777-4444--------------5555-7777-4444-|
C-3-3-3-3--5-5----------------3-3-3-3--5-5----------------|
G-3-3-3-3--5-5----------------3-3-3-3--5-5----------------|
C-3-3-3-3--5-5----------------3-3-3-3--5-5----------------|

D-----------------------------------------|
A-----------------------------------------|
F-----------------------------------------|
C-3-3-3-3--5-5-5-5--7-7-7-7--9-9-9/-1010--|
G-3-3-3-3--5-5-5-5--7-7-7-7--9-9-9/-1010--|
C-3-3-3-3--5-5-5-5--7-7-7-7--9-9-9/-1010--|


Break Down
D-----------------------------------------|
A-----------------------------------------|
F-----------------------------------------|
C-----------------------------------------|16X
G-0-0-0-0-3-0-0-0-3-----------------------|
C-0-0-0-0-3-0-0-0-3-----------------------|


Break Down 2

D------------------------------------------------------|
A------------------------------------------------------|
F------------------------------------------------------|
C-3r--5r--3r--5r---------------------------------------|
G-3r--5r--3r--5r-------------------33333333-55555555---|
C-3r--5r--3r--5r-33333333-55555555-33333333-55555555---|

Chorus
D---------------------------------------------------------|
A---------------------------------------------------------|
F--------------5555-7777-4444--------------5555-7777-4444-|
C-3-3-3-3--5-5----------------3-3-3-3--5-5----------------|
G-3-3-3-3--5-5----------------3-3-3-3--5-5----------------|
C-3-3-3-3--5-5----------------3-3-3-3--5-5----------------|

D-----------------------------------------|
A-----------------------------------------|
F-----------------------------------------|
C-3-3-3-3--5-5-5-5--7-7-7-7--9-9-9/-1010--|
G-3-3-3-3--5-5-5-5--7-7-7-7--9-9-9/-1010--|
C-3-3-3-3--5-5-5-5--7-7-7-7--9-9-9/-1010--|


Outro
Guitar 1
D-----------------------------------------|
A-----------------------------------------|
F----5555-7777-4444-----------------------|
C-0-----------------3-3h-0-3-3h-0-3/5-----|
G-0-----------------3-3h-0-3-3h-0-3/5-----|
C-0-----------------3-3h-0-3-3h-0-3/5-----|
                                          4X
D-----------------------------------------|
A-----------------------------------------|
F----5555-4444-2222-----------------------|
C-0-----------------3-3h-0-3-3h-0-3/5-----|
G-0-----------------3-3h-0-3-3h-0-3/5-----|
C-0-----------------3-3h-0-3-3h-0-3/5-----|

Guitar 2
D------------------------------------------|
A------------------------------------------|
F---8888-10101010-7777---------------------|
C-0--------------------3-3h-0-3-3h-0-3/5---|
G-0--------------------3-3h-0-3-3h-0-3/5---|
C-0--------------------3-3h-0-3-3h-0-3/5---|
                                          2X
D------------------------------------------|
A------------------------------------------|
F---8888-7777-5555-------------------------|
C-0----------------3-3h-0-3-3h-0-3/5-------|
G-0----------------3-3h-0-3-3h-0-3/5-------|
C-0----------------3-3h-0-3-3h-0-3/5-------|
Advertisement will be closed in 10 seconds