Song name
# A B C D E F G H I J K L M N O P Q R S T U V W X Y Z

My Epic - Childbodybride tab

Solo starting at 2:23 Sounds right to me. First tab. Email me if wrong, etc.


e|----------------------------------------------------------------------------|
b|----------------------------------------------------------------------------|
g|--10/12~~--14----------------12---------------------------------------------|
d|--------------14~--14p12-10------14--12--12/10~---12/14-12--10h12-14--------|
a|----------------------------------------------------------------------------|
E|----------------------------------------------------------------------------|

e|----------------------------------------------------------------------------|
b|----------------------------------------------------------------------------|
g|--10/12~~--14---------------12----------------------------------------------|
d|--------------14~--14p12-10----14--12--12/10~---12/14\12--10h12p10----------|
a|-------------------------------------------------------------------12p10h12~|
E|----------------------------------------------------------------------------|


e|----------------------------------------------------------------------------|
b|----------------------------------------------------------------------------|
g|-----------------------------------------------------------12p10--12~~------|
d|--10---------------10-----10--10/12\10~--12/14\12-10h12p10------------------|
a|-----12~--12p10-12----12----------------------------------------------------|
E|----------------------------------------------------------------------------|

e|----------------------------------------------------------------------------|
b|------------------12-------------13-------15--------------------------------|
g|--12/14--------------12--------------12--------12---------------------------|
d|---------14~--12~-------14--------------------------------------------------|
a|----------------------------------------------------------------------------|
E|----------------------------------------------------------------------------|

Tap to rate this tab
 
# A B C D E F G H I J K L M N O P Q R S T U V W X Y Z