Song name
# A B C D E F G H I J K L M N O P Q R S T U V W X Y Z

My Epic - Sound And Fury tab

Standard Tuning. Timing can be difficult near the end.

|------------------------------------------------------------------|
|---------8-----------------------------8\6------------------------|
|--8----8----8p7------7--7---7h8-----8-------7--8--10--12p10-------|
|----10-----------10-----10-------10--------------------------12---|
|------------------------------------------------------------------|
|------------------------------------------------------------------|

|------------------------------------------------------------------|
|--------------------0-------------8--0----------------------------|
|----7--10--7-----7-----5/7-----7--------7-------------------------|
|--9-----------9-------------9--------------10--9----then repeat---|
|------------------------------------------------------------------|
|------------------------------------------------------------------|
Tap to rate this tab
 
# A B C D E F G H I J K L M N O P Q R S T U V W X Y Z