Song name
# A B C D E F G H I J K L M N O P Q R S T U V W X Y Z

My Epic - Perfector tab

The line that starts at 2:01. Standard tuning.

|----------------------------------------------------------------------------|
|--6----------------------------------6--------------------------------------|
|----7------------------------5h7h9-----7------------7/9---------------------|
|-----7h8-10-8-7-5~---5h7h8--------------7h8-10-8-7-------10--7h10p7--5------|
|-----------------------------------------------------------------------8----|
|----------------------------------------------------------------------------|

|----------------------------------------------------------------------------|
|--6----------------------------------6--------------------10----------------|
|----7-----------------7----------------7-----------7-7/10----9h10-9h10------|
|-----7h8-10-8-7--8/10---9-8-7-5---------7h8-10-8-7--------------------------|
|----------------------------------------------------------------------------|
|----------------------------------------------------------------------------|
Tap to rate this tab
 
# A B C D E F G H I J K L M N O P Q R S T U V W X Y Z