Song name
# A B C D E F G H I J K L M N O P Q R S T U V W X Y Z

My Epic - The Oil Press tab

Standard tuning. A few of the lines from the song.

Guitar 1
[0:00-0:45]
|---------0--------------0-------------0--------------0----------------------|
|----6-------6------7-------6-----6-------6------6-------6-------------------|
|--7---7----------7---7---------7---7----------7---7-------------------------|
|----------------------------------------------------------------------------|
|----------------------------------------------------------------------------|
|----------------------------------------------------------------------------|

|---------0--------------0---------------0-------------0---------------------|
|----6-------6------6-------6-------6-------6-----6-------6------------------|
|--5---5----------5---5-----------5---5---------5---5------------------------| 
|----------------------------------------------------------------------------|
|----------------------------------------------------------------------------|
|----------------------------------------------------------------------------|
x4

Guitar 1
[0:45-1:13]
|--------------------------------------------|
|--10-----10~-------10~------10~-------------|
|----10--------10-------10-------10---10-----|
|------12--------12-------12-------12--------|
|--------------------------------------------|
|--------------------------------------------|

|--------------------------------------------|
|--10-----10~-------10~------10~-------------|
|----10--------10-------10-------10---10-----|
|------12--------12-------12-------12--------|
|--------------------------------------------|
|--------------------------------------------|

|--------------------------------------------|
|--8------8~------8~--------8~---------------|
|----9-------9---------9--------9----9-------|
|------10------10--------10-------10---------|
|--------------------------------------------|
|--------------------------------------------|

|--------------------------------------------|
|--8------8~------8~--------8~---------------|
|----9-------9---------9--------9----9-------|
|------10------10--------10-------10---------|
|--------------------------------------------|
|--------------------------------------------|
x2

Guitar 2
[0:45-1:13]
|-------------12-------------12----------------12--13---------------12--13---|
|-15~----13------15~----13-------15~---13--15----------15~--13--15--------15~|
|----------------------------------------------------------------------------|
|----------------------------------------------------------------------------|
|----------------------------------------------------------------------------|
|----------------------------------------------------------------------------|

|-------12-------------12----------------12--13------------------------------|
|---13------15~----13-------15~---13--15-------------------------------------|
|----------------------------------------------------------------------------|
|----------------------------------------------------------------------------|
|----------------------------------------------------------------------------|
|----------------------------------------------------------------------------|

Repeat first guitar line from [1:13-1:52]

Line from [2:21-2:41]

|----------------------------------------------------------------------------|
|--------------------------------6p5-----------6p5---------------------------|
|-----------------------------5------5-------------5-------------------------|
|-----------------3/5--7p5--7----------7p5-----------7p5---------------------|
|--5/7--8p7--3h5---------------------------8--------------8------------------|
|----------------------------------------------------------------------------|

|----------------------------------------------------------------------------|
|--------------------------------6p5-----------10p8--------------------------|
|-----------------------------5------5--------------101010-9-----------------|
|-----------------3/5--7p5--7----------7p5-----------------------------------|
|--5/7--8p7--3h5---------------------------8---------------------------------|
|----------------------------------------------------------------------------|
x2
Tap to rate this tab
# A B C D E F G H I J K L M N O P Q R S T U V W X Y Z