Song name
# A B C D E F G H I J K L M N O P Q R S T U V W X Y Z

My Favorite Highway - Youre Making It Come Alive tab

Intro Riff/Chorus:(With Distortion)

e--x-x-------7h8-----------7h8--10/12-10\7-8-|
b--x-x-8-------------8-----------------------|
g--x-x---7h9-----9p7---7h9-------------------|
d--x-x---------------------------------------|
a--x-x---------------------------------------|
E--x-x---------------------------------------|

OR

e--x-x-------7-8-----------7-8--10/12-10\7-8-|
b--x-x-8-------------8-----------------------|
g--x-x---7-9-----9-7---7-9-------------------|
d--x-x---------------------------------------|
a--x-x---------------------------------------|
E--x-x---------------------------------------|

Verse:

C-Am-F-G

e----7h8p7h8p7---  <----| That happens a little
b-----------------------|
g-----------------------|

Pre Chorus:

"The fear of growing old, and doing what you're told"

F C G Am

Chorus:(Chords=Acoustic, Riff= Dist.)

F-C-G-Am- Intro Riff

Bridge:
C-Bm-A#-Am
C-Bm-A#-Am-G

And that's it.
-Alex
Tap to rate this tab
 
# A B C D E F G H I J K L M N O P Q R S T U V W X Y Z