Song name
# A B C D E F G H I J K L M N O P Q R S T U V W X Y Z

My Favorite - Homeless Club Kids tab

My Favorite - Homeless Club Kids
From the album "Happiest Days Of Our Lives" (Double Agent 2003).

http://en.wikipedia.org/wiki/My_Favorite

Tabbed by Isaac Murguia, February 2014.
Originally uploaded to Ultimate-Guitar.com
Contact: www.youtube.com/user/Goadiroth

You can use a CAPO on the 3rd fret if you want.
Not necessary though, for those who don't have one. :)

INTRO/VERSE:
e|-------------------3-------3-----|
B|-----3-------3-------5-------5---|
G|---5-------5-----5-------5-------|
D|-3-------3-----------------------|
A|---------------------------------|
E|---------------------------------| [x3]

CHORUS:             [x3]
e|--------|---------------------|-----------|
B|--------|---------------------|-----------|
G|--------|---------------------|-----------|
D|-333333-|-x-3333333-x-3333333-|-x-3333333-|
A|--------|---------------------|-----------|
E|--------|---------------------|-----------|
         [x3]
e|------------------|-------------------------|
B|------------------|-------------------------|
G|------------------|-------------------------|
D|-3555555-22-------|-3/5-5555-5555-5555-5555-|
A|------------55-33-|-------------------------|
E|------------------|-------------------------|
      [x3]            [x2]
e|-----------|---------------------|--------|
B|-----------|---------------------|--------|
G|-----------|-5555-5555-----------|-555555-|
D|-3333-3333-|-----------3333-3333-|--------|
A|-----------|---------------------|--------|
E|-----------|---------------------|--------|
         [x3]
e|------------------|-------------------------|
B|------------------|-------------------------|
G|------------------|-------------------------|
D|-3555555-22-------|-3/5-5555-5555-5555-5555-|
A|------------55-33-|-------------------------|
E|------------------|-------------------------|

Repeat VERSE [x2]
Repeat CHORUS [x2]

BRIDGE:
e|----------------------------------|
B|----------------------------------|
G|-10----------------10-------------|
D|-10-------10-------10-------10----|
A|-8--------10-------8--------10----|
E|----------8-----------------8-----|

OUTRO MELODY:
e|---------------------------------|------------------------------|
B|-8----6--------------------------|----8-------------------------|
G|-----------9--10p9----10p9-------|------10-9-5---5---/9-7-------|
D|----7----7---------10------10----|-------------5----------10----|
A|------------------------------10-|---------------------------10-|
E|---------------------------------|-8----------------------------|

e|-----------------------------|------------------------------|
B|------8----6-----------------|----8-------------------------|
G|----------------9--10p9------|------10-9-5---5---/9-7-------|
D|----8----7-------------10----|-------------5----------10----|
A|--------------------------10-|---------------------------10-|
E|-8---------------------------|-8----------------------------| [x4]

Repeat CHORUS [x2]

End. Please rate!
Tap to rate this tab
# A B C D E F G H I J K L M N O P Q R S T U V W X Y Z