Guitaretab - guitar tabs
Song name
# A B C D E F G H I J K L M N O P Q R S T U V W X Y Z

My Federation - What Gods Are These tab

Song: What Gods Are These
Band: My Federation
Tabbed by: Bexerwolf
Email: bexandtoby@hotmail.com

Tuning: Standard

Intro:
Guitar 1/2 -
e|---------------------------------------------------------------------------|
B|---------------------------------------------------------------------------|
G|---------------------------------------------------------------------------|
D|---------------------------------------------------------------------------|
A|------5--7--------5--7---------5-7-----------------------------------------|
E|------------0-----------0----------0---------------------------------------|

Main Riff:
Guitar 1-
e|---------------------------------------------------------------------------|
B|---------------------------------------------------------------------------|
G|---------------------------------------------------------------------------|
D|---------------------------------------------------------------------------|
A|-----7-7-7-5-----------5------7-7-7-5-----------5------7-7-7-5-----------5-|
E|-------------7-5-5-5-7----------------7-5-5-5-7----------------7-5-5-5-7---|
PM. PM. PM. PM. PM. PM. PM. PM. PM. PM. PM. PM. PM. PM. PM. PM. PM. PM. PM.

Guitar 2-
e|---------------------------------------------------------------------------|
B|---------------------------------------------------------------------------|
G|-----------------------------------------------------------9--9-9---9--9-9-|
D|---------------------------------------------------------------------------|
A|---------------------------------------------------------------------------|
E|---------------------------------------------------------------------------|

Guitar 1-
e|---------------------------------------------------------------------------|
B|---------------------------------------------------------------------------|
G|---------------------------------------------------------------------------|
D|---------------------------------------------------------------------------|
A|-----7-7-7-5-----------5---------------------------------------------------|
E|-------------7-5-5-5-7-----------------------------------------------------|

Guitar 2-
e|-----------------------------------------------------------------------------|
B|-----------------------------------------------------------------------------|
G|---------9--9-9---9-X12------------------------------------------------------|
D|-----------------------------------------------------------------------------|
A|-----------------------------------------------------------------------------|
E|-----------------------------------------------------------------------------|

Guitar 1-
e|---------------------------------------------------------------------------|
B|---------------------------------------------------------------------------|
G|-----9-9-9-7-----------7-------------7-7-7-7-8-8-8-8-----------------------|
D|-----9-9-9-7-9-7-7-7-9-7---X3--------7-7-7-7-8-8-8-8-----------------------|
A|-----7-7-7-5-9-7-7-7-9-5-------------5-5-5-5-6-6-6-6-----------------------|
E|-------------7-5-5-5-7-----------------------------------------------------|

Guitar 2-
e|---------------------------------------------------------------------------|
B|---------------------------------------------3-3-3-3-----------------------|
G|-----9-9-9-7-----------7-------------7-7-7-7-4-4-4-4-----------------------|
D|-----9-9-9-7-9-7-7-7-9-7---X3--------7-7-7-7-4-4-4-4-----------------------|
A|-----7-7-7-5-9-7-7-7-9-5-------------5-5-5-5-2-2-2-2-----------------------|
E|-------------7-5-5-5-7-----------------------------------------------------|

Verse:

Guitar 1-
e|---------------------------------------------------------------------------|
B|---------------------------------------------------------------------------|
G|---------------------------------------------------------------------------|
D|---------------------------------------------------------------------------|
A|-------------0---------0---X4--------7-7-7-7-0---------0---X4--------------|
E|-----0-0-0-0---7-7-7-7-------------------------7-7-7-7---------------------|
PM. PM. PM. PM. PM. PM. PM. PM. PM. PM. PM. PM. PM. PM. PM. PM. PM. PM. PM.

Guitar 2-
e|---------------------------------------------------------------------------|
B|---------------------------------------------------------------------------|
G|------------------------------------------------9---9-9-----X4-------------|
D|---------------------------------------------------------------------------|
A|---------------------------------------------------------------------------|
E|---------------------------------------------------------------------------|

Pre-Chorus:

Guitar 1-
e|----3-------------0-----------------3--------------------------------------|
B|----3------4------0-----------------3------44444444------------------------|
G|----0------4------0-----------------0------44444444------------------------|
D|----0------4------2-----------------0------44444444------------------------|
A|----2------2------2-----------------2------22222222------------------------|
E|----3-------------0-----------------3--------------------------------------|

Chorus:

Guitar 1-
e|---------------------------------------------------------------------------|
B|---------------------------------------------------------------------------|
G|-----9-9-9-7-----------7-------------7-7-7-7-8-8-8-8-----------------------|
D|-----9-9-9-7-9-7-7-7-9-7---X3--------7-7-7-7-8-8-8-8-----------------------|X2
A|-----7-7-7-5-9-7-7-7-9-5-------------5-5-5-5-6-6-6-6-----------------------|
E|-------------7-5-5-5-7-----------------------------------------------------|

Guitar 2-
e|---------------------------------------------------------------------------|
B|---------------------------------------------3-3-3-3-----------------------|
G|-----9-9-9-7-----------7-------------7-7-7-7-4-4-4-4-----------------------|
D|-----9-9-9-7-9-7-7-7-9-7---X3--------7-7-7-7-4-4-4-4-----------------------|X2
A|-----7-7-7-5-9-7-7-7-9-5-------------5-5-5-5-2-2-2-2-----------------------|
E|-------------7-5-5-5-7-----------------------------------------------------|

Post-Chorus:

Guitar 1/2 -
e|---------------------------------------------------------------------------|
B|---------------------------------------------------------------------------|
G|---------------------------------------------------------------------------|
D|---------------------------------------------------------------------------|
A|------5--7--------5--7---------5-7-----------------------------------------|
E|------------0-----------0----------0---------------------------------------|

Verse 2:

Guitar 1-
e|---------------------------------------------------------------------------|
B|---------------------------------------------------------------------------|
G|---------------------------------------------------------------------------|
D|---------------------------------------------------------------------------|
A|-------------0---------0---X4--------7-7-7-7-0---------0---X4--------------|
E|-----0-0-0-0---7-7-7-7-------------------------7-7-7-7---------------------|
PM. PM. PM. PM. PM. PM. PM. PM. PM. PM. PM. PM. PM. PM. PM. PM. PM. PM. PM.

Guitar 2-
e|---------------------------------------------------------------------------|
B|---------------------------------------------------------------------------|
G|------------------------------------------------9---9-9-----X4-------------|
D|---------------------------------------------------------------------------|
A|---------------------------------------------------------------------------|
E|---------------------------------------------------------------------------|

Pre-Chorus:
[ Tab from: http://www.guitaretab.com/m/my-federation/117402.html ]
Guitar 1-
e|----3-------------0-----------------3--------------------------------------|
B|----3------4------0-----------------3------44444444------------------------|
G|----0------4------0-----------------0------44444444------------------------|
D|----0------4------2-----------------0------44444444------------------------|
A|----2------2------2-----------------2------22222222------------------------|
E|----3-------------0-----------------3--------------------------------------|

Chorus 2:

Guitar 1-
e|---------------------------------------------------------------------------|
B|---------------------------------------------------------------------------|
G|-----9-9-9-7-----------7-------------7-7-7-7-8-8-8-8-----------------------|
D|-----9-9-9-7-9-7-7-7-9-7---X3--------7-7-7-7-8-8-8-8-----------------------|X2
A|-----7-7-7-5-9-7-7-7-9-5-------------5-5-5-5-6-6-6-6-----------------------|
E|-------------7-5-5-5-7-----------------------------------------------------|

Guitar 2-
e|---------------------------------------------------------------------------|
B|---------------------------------------------3-3-3-3-----------------------|
G|-----9-9-9-7-----------7-------------7-7-7-7-4-4-4-4-----------------------|
D|-----9-9-9-7-9-7-7-7-9-7---X3--------7-7-7-7-4-4-4-4-----------------------|X2
A|-----7-7-7-5-9-7-7-7-9-5-------------5-5-5-5-2-2-2-2-----------------------|
E|-------------7-5-5-5-7-----------------------------------------------------|

Bridge:

WAIT FOR BAA'S TO GO THROUGH ONCE THEN PLAY -

Guitar 1-
e|---------------------------------------------------------------------------|
B|---------------------------------------------------------------------------|
G|-----9-9-9-7-----------7-------------7-7-7-7-8-8-8-8-----------------------|
D|-----9-9-9-7-9-7-7-7-9-7---X3--------7-7-7-7-8-8-8-8-----------------------|
A|-----7-7-7-5-9-7-7-7-9-5-------------5-5-5-5-6-6-6-6-----------------------|
E|-------------7-5-5-5-7-----------------------------------------------------|

Guitar 2-
e|---------------------------------------------------------------------------|
B|---------------------------------------------3-3-3-3-----------------------|
G|-----9-9-9-7-----------7-------------7-7-7-7-4-4-4-4-----------------------|
D|-----9-9-9-7-9-7-7-7-9-7---X3--------7-7-7-7-4-4-4-4-----------------------|
A|-----7-7-7-5-9-7-7-7-9-5-------------5-5-5-5-2-2-2-2-----------------------|
E|-------------7-5-5-5-7-----------------------------------------------------|

Guitar 1-
e|---------------------------------------------------------------------------|
B|---------------------------------------------------------------------------|
G|-----9-9-9-7-----------7------9-9-9-7-----------7------9-9-9-7-----------7-|
D|-----9-9-9-7-9-7-7-7-9-7------9-9-9-7-9-7-7-7-9-7------9-9-9-7-9-7-7-7-9-7-|
A|-----7-7-7-5-9-7-7-7-9-5------7-7-7-5-9-7-7-7-9-5------7-7-7-5-9-7-7-7-9-5-|
E|-------------7-5-5-5-7----------------7-5-5-5-7----------------7-5-5-5-7---|

e|----------------------------------------------9--------------10--------12--|
B|--------------------10--------------12-------------------------------------|
G|---------12----------------------------------------------------------------|
D|---------------------------------------------------------------------------|
A|---------------------------------------------------------------------------|
E|---------------------------------------------------------------------------|

Guitar 1-
e|---------------------------------------------------------------------------|
B|---------------------------------------------------------------------------|
G|----7-7-7-7-8-8-8-8--------------------------------------------------------|
D|----7-7-7-7-8-8-8-8--------------------------------------------------------|
A|----5-5-5-5-6-6-6-6--------------------------------------------------------|
E|---------------------------------------------------------------------------|

Guitar 2-
e|---12-12--12--12-12x3------------------------------------------------------|
B|---------------------------------------------------------------------------|
G|---------------------------------------------------------------------------|
D|---------------------------------------------------------------------------|
A|---------------------------------------------------------------------------|
E|---------------------------------------------------------------------------|

Outro -

Guitar 1-
e|---------------------------------------------------------------------------|
B|---------------------------------------------------------------------------|
G|-----------------------------------7-7-7-7-8-8-8-8-------------------------|
D|-----------------------------------7-7-7-7-8-8-8-8-------------------------|
A|-----7-5-4-3-2-0------X3-----------5-5-5-5-6-6-6-6-------------------------|
E|-----------------3-2-------------------------------------------------------|

Guitar 2-
e|---------------------------------------------------------------------------|
B|-------------------------------------------3-3-3-3-------------------------|
G|-----------------------------------7-7-7-7-4-4-4-4-------------------------|
D|-----------------------------------7-7-7-7-4-4-4-4-------------------------|
A|-----7-5-4-3-2-0------X3-----------5-5-5-5-2-2-2-2-------------------------|
E|-----------------3-2-------------------------------------------------------|

Guitar 1-
e|-----3-----------------------------------------0---------------------------------|
B|-----3-----------------------------------------0---------------------------------|
G|-----0--------------------3--------------------0---------------------------------|
D|-----0--------------------3--------------------2---------------------------------|
A|-----2--------------------1--------------------2---------------------------------|
E|-----3-----------------------------------------0---------------------------------|

Guitar 1-
e|---------------------------------------------------------------------------------|
B|------------------------------------------------8--------------------------------|
G|-----4--------------------3---------------------9--------------------------------|
D|-----5--------------------3---------------------9--------------------------------|
A|-----5--------------------1---------------------7--------------------------------|
E|-----3---------------------------------------------------------------------------|

| /  slide up
| \  slide down
| h  hammer-on
| p  pull-off
| ~  vibrato
| +  harmonic
| x  Mute note

What Gods Are These Lyrics

Ba Ba Ba Ba Ba Ba Ba Ba Ba Ba Baaa
Ba Ba Ba Ba Ba Ba Ba Ba Ba Ba Baaa
Ba Ba Ba Ba Ba Ba Ba Ba Ba Ba Baaa
Ba Ba Ba Ba Ba Ba Ba Baa

Verse 1:
Its war, she said,
As she turned on the T.V set
Tuned in, through the storm
To the nightly news reel show

Verse 2:
Where a voice conformed our fears
As she stifled back the tears
And declared Shed watched the highlights
 On T.V!

Pre-Chorus:
Count to three Ill be back home soon
Count to threeeee

Chorus:
What gods are these?
To justify these deeds
Not mine, Im sure
Could this really be the cure?

Chorus 2:
And were dancing in the streets
And kissing that boys feet
As your love begins to flow
On your breakfast T.V show

Verse 3:
We flew for hours
And we all took communal showers
And we wondered at the heat
As our boots melted to our feet

Verse 4:
And I darn the armoured vest
Walked out with all the rest
Straight into what I thought must be
a dream!

Pre-Chorus:
Count to three Ill be back home soon
Count to threeeee


Chorus:
What gods are these?
To justify these deeds
Not mine, Im sure
Could this really be the cure?

Chorus 2:
And were dancing in the streets
And kissing that boys feet
As your love begins to flow
On your breakfast T.V show

Ba Ba Ba Ba Ba Ba Ba Ba Ba Ba Baaa
Ba Ba Ba Ba Ba Ba Ba Ba Ba Ba Baaa
Ba Ba Ba Ba Ba Ba Ba Ba Ba Ba Baaa
Ba Ba Ba Ba Ba Ba Ba Baa