Guitaretab - guitar tabs
Song name
# A B C D E F G H I J K L M N O P Q R S T U V W X Y Z

My Friend The Chocolate Cake - The Romp tab

THE ROMP
MY FRIEND THE CHOCOLATE CAKE

<<<<>>>>:  http://www.mftcc.com/ Listen to the song at
http://www.imeem.com/soundtracking/music/OYJ1yoyO/my-friend-the-chocolate-cake-the-romp/

this is also featured on a tv ad. Cant remember which one but its sumthn like home loans
sumthn like that. it may be IGN (Insurance) not sure though. cant find this song any
on the internet. sum1 i know had it for there wedding song and i had never heard it 
then until i heard it on that ad. jjust thought id make a tab for it. if u play it, it may
farmiliar. its just hard to get the timing right.
i did this off by heart

Tabbed by: 2guitargod4
Email: sam.rocks.123@hotmail.com

Tuning: standard [EADGBe]

  Piano intro/starts slow-builds up:
e|---------------------------------------------|
B|--------------------------------------8--7---|
G|------7------7-------5---7---9------7--7-----| repeat X4
D|--7h9----7h9----7h9----5---5-----------------|
A|---------------------------------------------|
E|---------------------------------------------|

_______________________________________________________


Piano Main:
e|-----------------------------------|
B|----------------------------8---7--|
G|-----7-----7-----5/7-9----7---7----|
D|-7h9---7h9---7h9-------------------|
A|-----------------------------------|
E|-----------------------------------|

Violin main (harmony):
e|-------10-------10-------8/10-12-----15----14--|
B|-10h12----10h12----10h12----------15----15-----|
G|-----------------------------------------------|
D|-----------------------------------------------|
A|-----------------------------------------------|
E|-----------------------------------------------|

Guitar main: hard to hear
e|--------------------------------------------------------------------------|
B|-10-12-15-10-12-15-10-12-15~---10-12-15-10-12-15-10-12-15-13-12-13~-------|
G|--------------------------------------------------------------------------|
D|--------------------------------------------------------------------------|
A|--------------------------------------------------------------------------|
E|--------------------------------------------------------------------------|
[ Tab from: http://www.guitaretab.com/m/my-friend-the-chocolate-cake/185211.html ]
Chello main:
e|--------------------------------------------------------------------------|
B|--------------------------------------------------------------------------|
G|--------------------------------------------------------------------------|
D|--------------------------------------------------------------------------|
A|-----5-----5-----3/5-7~---------------------------------------------------|
E|-5/7---5/7---5/7----------------------------------------------------------|

  ________________________________________________________________________


Piano 2nd:
e|--------------------------------------------------------------------------|
B|-----7-8-7--8--7-------------7h8-10p8p7---8p7-----------------------------|
G|-7/9-------------9-7-9---7/9------------9-----9p7-------------------------|
D|--------------------------------------------------10p9-7\5----------------|
A|--------------------------------------------------------------------------|
E|--------------------------------------------------------------------------|

Violin 2nd(harmony):
e|-------9-10-9--10--9------------------9h10-12p10p9----10p9----------------|
B|-10/12---------------12-10-12---10/12--------------12------12p10----------|
G|----------------------------------------------------------------12p11-9\7-|
D|--------------------------------------------------------------------------|
A|--------------------------------------------------------------------------|
E|--------------------------------------------------------------------------|

<<<<<>>>>

Chello 2nd:
e|--------------------------------------------------------------------------|
B|--------------------------------------------------------------------------|
G|-7~~~~-------9~~~~-----7~~~~----------------------------------------------|
D|--------------------------------------------------------------------------|
A|-5~~~~-------7~~~~-----5~~~~-----5~----4~---------------------------------|
E|--------------------------------------------7~----5~----------------------|

as i said i did it off by heart so there is a bit missing.

theres also a little srtumming part that goes:

 D D DU D   D DU DU D UD
 St---------------------
 G G GG G   C CC CC C CC
-3-3-33-3---0-00-00-0-00-------------------|
-3-3-33-3---1-11-11-1-11-------------------|
-0-0-00-0---0-00-00-0-00-------------------|
-0-0-00-0---2-22-22-2-22-------------------|
-2-2-22-2---3-33-33-3-33-------------------|
-3-3-33-3----------------------------------|

| /  slide up
| \  slide down
| h  hammer-on
| p  pull-off
| st strum
| ~  vibrato
Related for The Romp tab
Advertisement will be closed in 10 seconds