Song name
# A B C D E F G H I J K L M N O P Q R S T U V W X Y Z

My Future Lies - Just One Chance tab

-------------------------------------------------------------------------------
			     JUST ONE CHANCE  My Future Lies
-------------------------------------------------------------------------------

http://www.myfuturelies.com/


Tabbed by: Jacynta
Email:

Tuning: standard tuning (in C# Major)

Check out the song for more accurate timing.... =)

INTRO
e|--1-1-1-4-4-4-4-4-4-1-1-1-4-4-4-4-4-4-1-1-1-4-4-4-4-4-4p1(echo)------------|
B|---------------------------------------------------------------------------|
G|---------------------------------------------------------------------------|
D|---------------------------------------------------------------------------|
A|---------------------------------------------------------------------------|
E|---------------------------------------------------------------------------|

MAIN RIFF
e|--------4----------------------------------4-------------------------------|
B|--2--1--2--1-----------8-------8-6---2--1--2--1------------8-------8-6-----|
G|--3-1-1---1-1--9-9-7-6---7-7-6-------3-1-1---1-1--9-9-7--6---7-7-6-----8---|
D|-----------------------------------------------------------------------8---|
A|---------------------------------------------------------------------------|
E|---------------------------------------------------------------------------|

VERSE (predominantly bass line)
e|---------------------------------------------------------------------------|
B|---------------------------------------------------------------------------|
G|---------------------------------------------------------------------------|
D|-------------------------------------------------------------8-8----x2-----|
A|-6-6-6-6-6-6-6-6-6-6-6-6-6-6-6-8-9-9-9-9-9-9-9-11-11-9-8-8-6-6-6-----------|
E|---------------------------------------------------------------------------|

   (3rd time in verse)                    BRIDGE
e|-----------------------------1-----1------------1--------------------------|
B|-----------------------------2--1--2----2--4--2---4-2-1----------2-2-------|
G|-----------------------------3--1--3----3--5--3---------3-3-3-1--2-2-------|
D|--------------------------------1-------4--6--4----------------------------|
A|-6-6-6-6-6-6-6-6-6-6-6-6-6-8-----------------------------------------------|
E|---------------------------------------------------------------------------|

CHORUS 1                             MAIN RIFF
e|--1--1-1--1-1--4--4-4--4-4----------------4--------------------------------|
B|--2--2-2--2-2--2--2-2--2-2---x4-----2--1--2--1-----------8-------8-6---2---|
G|--3--3-3--3-3--3--3-3--3-3----------3-1-1---1-1--9-9-7-6---7-7-6-------3---|
D|---------------------------------------------------------------------------|
A|---------------------------------------------------------------------------|
E|---------------------------------------------------------------------------|

                                      VERSE 2
e|-----4---------------------------------------------------------------------|
B|--1--2--1-----------8-------8-6--------------------------------------------|
G|-1-1---1-1--9-9-7-6---7-7-6-----8------------------------------------------|
D|--------------------------------8------------------------------------------|
A|------------------------------------6-6-6-6-6-6-6-6-6-6-6-6-6-6-6-8-9-9-9-9|
E|---------------------------------------------------------------------------|

                                   (3rd time in verse)
e|-------------------------------------------------------------1-----1-------|
B|-------------------------------------------------------------2--1--2-------|
G|---------------------8-8----x2-------------------------------3--1--3-------|
D|-9-9-9-11-11-9-8-8-6-6-6---------6-6-6-6-6-6-6-6-6-6-6-6-6-8----1----------|
A|---------------------------------------------------------------------------|
E|---------------------------------------------------------------------------|

BRIDGE                             CHORUS 2
e|----------1-----------------------1--1-1--1-1--4--4-4--4-4-------?------------|
B|--2--4--2---4-2-1----------2-2----2--2-2--2-2--2--2-2--2-2---x2--?--2---------|
G|--3--5--3---------3-3-3-1--2-2----3--3-3--3-3--3--3-3--3-3-------?--3---------|
D|--4--6--4-----------------------------------------------------------4---------|
A|------------------------------------------------------------------------------|
E|------------------------------------------------------------------------------|

Rpt INTRO
e|---1-1-1-4-4-4-4-4-4-1-1-1-4-4-4-4-4-4-1-1-1-4-4-4-4-4-4p1(echo)-----------|
B|---------------------------------------------------------------------------|
G|---------------------------------------------------------------------------|
D|---------------------------------------------------------------------------|
A|---------------------------------------------------------------------------|
E|---------------------------------------------------------------------------|

SOLO part 1                   SOLO part 2
e|--------------4-4-4--------------------------------------------------------|
B|-2--2-4--2-4--2-2-2---x4---------------------------------------------------|
G|-3--3-3--3-3--3-3-3----------10-10-10--8-8-8--6-6-6--5-5-5--3--3--5--5--6--|
D|---------------------------------------------------------------------------|
A|---------------------------9-----------------------------------------------|
E|---------------------------------------------------------------------------|

                                                             CHORUS 1 and 2
e|-------------------------------------------------------------1--1-1--1-1---|
B|-------------------------------------------------------------2--2-2--2-2---|
G|-8--8-----10-10-10--8-8-8--6-6-6--5-5-5--3--3--5--5---6-6----3--3-3--3-3---|
D|---------------------------------------------------------------------------|
A|--------9------------------------------------------------------------------|
E|---------------------------------------------------------------------------|

                                                        (BASS RIFF)
e|-4--4-4--4-4-------?-----------------------------1-------------------------|
B|-2--2-2--2-2---x6--?--2--7-6-4-2-1-----------2-1-2-------------------------|
G|-3--3-3--3-3-------?--3------------3-1-----------3-------------------------|
D|----------------------4----------------4-3-1-------------------------------|
A|------------------------------------------------------1-1-1-1-1------------|
E|----------------------------------------------------------------1-1-1-2-2--|

                        SOLO part 1
e|------------------------------------4-4-4-------------------------------------|
B|-----------------------2--2-4--2-4--2-2-2---x4--------------------------------|
G|----------------x5-----3--3-3--3-3--3-3-3-------------------------------------|
D|------------------------------------------------------------------------------|
A|------------------------------------------------------------------------------|
E|-2-2-2-2-2-2-2----------------------------------------------------------------|

************************************

| /   slide up
| \   slide down
| h   hammer-on
| p   pull-off
| ~   vibrato
| +   harmonic
| x   Mute note
| b   Bend
| pb  Pre-bend
| br  Bend release
| pbr Pre-bend release
| brb Bend release bend

************************************
Tap to rate this tab
# A B C D E F G H I J K L M N O P Q R S T U V W X Y Z