Song name
# A B C D E F G H I J K L M N O P Q R S T U V W X Y Z

My Getaway - Jessies Song tab

Artist: My Getaway (official website: http://www.mygetawayrock.com/)
Song: Jessie's Song (acoustic)
Tabbed by: Kevin

I've been looking for a tab of this song for quite a while, so i finally gave up and 
to do it myself. You can listen to this version of their song on their purevolume or 
page (http://www.purevolume.com/mygetaway OR http://www.myspace.com/mygetaway).. Enjoy!

Intro/Verse:

e|--3-3-x-3-3---3-x-x-x-x-x-----|       |--x-----x-----x-x-x-x----|
B|--3-3-x-3-3---3-3-3-x-3-3-----|       |--3-----3-----3-3-3-3----|
G|--0-0-x-0-0---0-4-4-x-4-4-----|  x2   |--2-----4-----2-4-2-0----|  x2
D|--2-2-x-2-2---2-2-2-x-2-2-----|       |--0-----0-----0-0-0-0----|
A|--3-3-x-3-3---3-3-3-x-3-3-----|       |--x-----x-----x-x-x-x----|
E|--x-x-x-x-x---x-x-x-x-x-x-----|       |--3-----3-----3-3-3-3----|

  "Jessie don't you hide..."            "I love it when you blush.."

Prechorus:

e|--0-0-x-0-0-x-0-0-x-0-0-x-3-3-x-3-3-x-3-3-x-3-3---|
B|--3-3-x-3-3-x-3-3-x-3-3-x-3-3-x-3-3-x-3-3-x-3-3---|
G|--0-0-x-0-0-x-0-0-x-0-0-x-0-0-x-0-0-x-0-0-x-0-0---|   x2
D|--2-2-x-2-2-x-2-2-x-2-2-x-0-0-x-0-0-x-0-0-x-0-0---|
A|--2-2-x-2-2-x-2-2-x-2-2-x-2-2-x-2-2-x-2-2-x-2-2---|
E|--0-0-x-0-0-x-0-0-x-0-0-x-3-3-x-3-3-x-3-3-x-3-3---|

  "Put your hands in my sweater.."

Chorus:

e|--3--3-3--3-3--3-3-3--|         |--3---0---0-------3---3---3---3----|
B|--3--3-3--3-3--3-3-3--|         |--3---1---3-------3---3---3---3----|
G|--0--0-0--2-2--0-0-0--|  x2     |--0---0---2-------0---0---0---0----|
D|--0--2-2--2-2--2-2-2--|         |--0---2---2-------2---0---2---0----|
A|--2--3-3--0-0--3-3-3--|         |--2---2---0-------2---2---2---2----|
E|--3-------------------|         |--3---0-----------0---3---0---3----|

 "So strike a match.."             "And if you..."  "I'll be the first.."
Tap to rate this tab
# A B C D E F G H I J K L M N O P Q R S T U V W X Y Z