Song name
# A B C D E F G H I J K L M N O P Q R S T U V W X Y Z

My Hero Is Me - Plot To Kill Bob Barker tab

Help us improve GuitareTab! Take a short survey!
-----------------------------------------------------------------
The Plot to Kill Bob Barker - My Hero is Me
-----------------------------------------------------------------
Tabbed by: Cameren
Email: neremac1992@yahoo.com

Tuning: C G C F A d

 
|---------------------------------------------------------------|x4
|---------------------------------------------------------------|
|---------------------------------------------------------------|
|---------------------------------------------------------------|
|---5-7h8-987-7h8-----5-7h8-987---------------------------------|
|00----------------00-------------------------------------------|

|---------------------------------------------------------------|x2
|---------------------------------------------------------------|
|---------------------------------------------------------------|
|----7-----9-----10-----12--12\10-9-7---------------------------|
|----5-----7-----8------10--10\8--7-5---------------------------|
|000---000---000----000-----------------------------------------|

|---------------------------------------------------------------|
|---------------------------------------------------------------|
|7-9-10-12-10-9-------------------------------------------------|
|x-x-x--x--x--x-------------------------------------------------|
|5-7-8--10-8--7-------------------------------------------------|
|---------------------------------------------------------------|
List to get the rythm - very easy 

|---------------------------------------------------------------|x2
|---------------------------------------------------------------|
|---------------------------------------------------------------|
|---------------------------------------------------------------|
|-------------------8p7-9p7---------7p5-8p5---------------------|
|0-0-00000--000-000---------000-000---------0000000-------------|
 ' ' '''''  ''' '''         ''' '''         liste to get rythm here

|---------------------------------------------------------------|x2
|---------------------------------------------------------------|
|---------------------------------------------------------------|
|-----0------0---------------0----------------------------------|
|-----0------0---------------0----------------------------------|
|0000-0-0000-0-00000000-0000-0----------------------------------|
 ''''   ''''   '''''''' ''''
Next part is the same as the first two bars up top

clean guitar outro
|---------------------------------------------------------------|x12
|---------------------------------------------------------------|
|---------------------------------------------------------------|
|-4-5p4---4-5p4---7-4---7-4-------------------------------------|
|5-------5-------5-----5----------------------------------------|
|---------------------------------------------------------------|


| /  slide up
| \  slide down
| h  hammer-on
| p  pull-off
| ~  vibrato
| +  harmonic
| x  Mute note
Related for Plot To Kill Bob Barker tab