Song name
# A B C D E F G H I J K L M N O P Q R S T U V W X Y Z

My Latest Novel - Pretty In A Panic tab

Tabbed by: Jason Hilton
Email: try.not.to.think@gmail.com			

Tuning: standard

Ok so ignore the bass tab, Im pretty sure its all guitar anyhow. Doh.

Intro

e|-------------------------------------------------------------------------|
B|----1--1--1--1--1--1--1--1--1--1--1--1--1--1--1--1-----------------------|
G|----0--0--0--0--0--0--0--0--0--0--0--0--0--0--0--0-----------------------|
D|-------------------------------------------------------------------------|
A|---3--3--3--3--2--2--2--2--3--3--3--3--2--2--2--2------------------------|
E|-------------------------------------------------------------------------|

e|-------------------------------------------------------------------------|
B|----1--1--1--1--1--1--1--------------------------------------------------|
G|----0--0--0--0--0--0--0--------------------------------------------------|
D|---2--3--2--3--2--3--2--0---and back to the beginning again -------------|
A|-------------------------------------------------------------------------|
E|-------------------------------------------------------------------------|


Easy as (although ive probably tabbed it wrong)

"and now the seashell artist creates another masterpiece" 
:)
Tap to rate this tab
 
# A B C D E F G H I J K L M N O P Q R S T U V W X Y Z