Song name
# A B C D E F G H I J K L M N O P Q R S T U V W X Y Z

My Life With The Thrill Kill Kult - After The Flesh tab

#------------Created with Taborama Tab Creator-----------------#
#------------------------------------------------------------------------------#

Title: After The Flesh
Artist: My Life With The Thrill Kill Kult
Album: The Crow soundtrack

Instrument: Guitar

Tabbed by: Andy Bones (Jackin_Man@msn.com)

Tuning: Standard (E A D G B E)

Cool song and it's very easy. The same thing is played over and over.


E|------------||
B|--11-10-8---||
G|--10-9--7---||
D|--8--7--5---||
A|------------||
E|------------||

E|---------------------||
B|--5--8--5--11-10-8---||
G|--4--7--4--10-9--7---||
D|--2--5--2--8--7--5---||
A|---------------------||
E|---------------------||

E|--------------||
B|--5-5-5-5-8---||
G|--4-4-4-4-7---||
D|--2-2-2-2-5---||
A|--------------||
E|--------------||
Tap to rate this tab
 
# A B C D E F G H I J K L M N O P Q R S T U V W X Y Z