Song name
# A B C D E F G H I J K L M N O P Q R S T U V W X Y Z

My Little Pony Friendship Is Magic - My Little Pony Friendship Is Magic tab

Good luck and haters gonna hate

e|-----------------------------------------------|
D|-----------------------------------------------|
G|-----------------------------------------------|
D|--5----5---5--7-7--9-9-------7--7--7---5-5-5-5-|
A|--5----5---5--7-7--9-9-------7--7--7---5-5-5-5-|
E|--3----3---3--5-5--7-7-------5--5--5---3-3-3-3-|

e|-----------------------------------------------|
B|-----------------------------------------------|
G|-----------------------------------------------|
D|--5----5---5--7-7--9-9-------7--7--5---5-5-5-5-|
A|--5----5---5--7-7--9-9-------7--7--5---5-5-5-5-|
E|--3----3---3--5-5--7-7-------5--5--3---3-3-3-3-|

e|----------------------------------------------------------------------------|
B|----------------------------------------------------------------------------|
G|----------------------------------------------------------------------------|
D|--5--------9---------7--------6-5---------9---------7-7-7-7-7-7-7-7-7-7-7-7-|
A|--5--------9---------7--------6-5---------9---------7-7-7-7-7-7-7-7-7-7-7-7-|
E|--3--------7---------5--------4-3---------7---------5-5-5-5-5-5-5-5-5-5-5-5-|

e|-----------------------------------------------|
B|-----------------------------------------------|
G|-----------------------------------------------|
D|--5----5---5--7-7--9-9-------7--7--5---5-5-5-5-|
A|--5----5---5--7-7--9-9-------7--7--5---5-5-5-5-|
E|--3----3---3--5-5--7-7-------5--5--3---3-3-3-3-|

e|------------------------------|
B|------------------------------|
G|------------------------------|
D|--5-----7-----9-----11-----12-|
A|--5-----7-----9-----11-----12-|
E|--3-----5-----7------9-----10-|
Tap to rate this tab
# A B C D E F G H I J K L M N O P Q R S T U V W X Y Z