Song name
# A B C D E F G H I J K L M N O P Q R S T U V W X Y Z

My Morning Jacket - Run Thru tab

Help us improve GuitareTab! Take a short survey!
-------------------------------------------------------------------------------
			     Run Thru - My Morning Jacket
-------------------------------------------------------------------------------
Tabbed by:captaincrunk

Tuning:eADGBE






e|---------11--13---------11--13-------------11--13-11-----------------------|
B|-11/13-----------11h13-------------11/13-------------14--13--13------------|
G|---------------------------------------------------------------------------|
D|---------------------------------------------------------------------------|
A|---------------------------------------------------------------------------|
E|---------------------------------------------------------------------------|
                         Slight bend on the 11's here
e|--------------------------11-----------------------------------------------|
B|13-13--11--11----------11----11---------------------11--11-----13--13------|
G|-----------------13--------------------------------------------------------|
D|---------------------------------------------------------------------------|
A|---------------------------------------------------------------------------|
E|---------------------------------------------------------------------------|

e|---------------------------------------------------------------------------|
B|-11------11--11------------------------------------------------------------|
G|----13------------13---12h13p12h13p12--------------------------------------|
D|---------------------------------------------------------------------------|
A|---------------------------------------------------------------------------|
E|---------------------------------------------------------------------------|

I dont really care about the chords...
Related for Run Thru tab