Song name
# A B C D E F G H I J K L M N O P Q R S T U V W X Y Z

My Morning Jacket - Thank You Too tab

Help us improve GuitareTab! Take a short survey!
THIS IS NOT MY TAB!! THIS BELONGS TO THE REAL PERSON WHO TABBED THIS. THAT IS IAN 
I JUST WANT PEOPLE TO LEARN THIS SONG WITH A GREAT TAB AND IT ISNT ON HERE


Thank You Too
Tabbed by Ian Taylor

Chords:
Gmaj7 3-X-0-0-3-2   Bm   X-2-4-4-3-2   Dmaj7  X-X-0-2-2-2-|
D     X-X-0-2-3-2   E    0-2-2-1-0-0----------------------|              or
A     X-0-2-2-2-0   G6   3-X-0-0-0-0          X-5-7-6-7-5-|
F#m   2-4-4-2-2-2   A6   X-0-2-2-2-2----------------------|

Intro/Chorus Riff 1:

e-----------------------------------------------------------------------|
B--5/7--5--3--3/5-5-5-5----3--5--7-7----7--5--3--3/5-5--3--2-2-2--------|
G--4/6--4--2--2/4---4----2----4--6-6----6--4--2--2/4----2--2---2--------|
D-----------------------------------------------------------------------|
A-----------------------------------------------------------------------|
E-----------------------------------------------------------------------|
                                                         <--Fill 1------|
e-------------------------------------------------------|---------------|
B-5/7--5--3--3/5-5-5-5---3--5--7-7----7--5--3--3/5-5--3-|-3---3------3--|
G-4/6--4--2--2/4---4---2----4--6-6----6--4--2--2/4----2-|-2h4-2h4--2-2--|
D-------------------------------------------------------|------------4--|
A-------------------------------------------------------|---------------|
E-------------------------------------------------------|---------------|

Verse 1:
Gmaj7
Pretty little thinker's gonna make it,
                                           D
Pretty little thinker's gonna make it this way.
Gmaj7                                          D
Put on my robot face, hide my emotions way far away from you.

Pre-Chorus:
             A            F#m               Bm                    E
Oh you really saw my naked heart. You really brought out the naked part.
            G
I don't know what you were doing,
        A                           D
I know I just want to thank you for thinking of me.

Chorus (w/ Riff 1):
G6                                  A6
I want to take you for all that you are,
        G6   D   Dmaj7
I know I will see far.
         G6                       A6
I want to see you for all that you do,
         G6    D    Fill 1
I want to thank you.

Verse 2:
It was strange and it was soothing, you could even say amusing
the way it came to me.
You devised a simple plan that would change the fate of man,
You thought of everything

Pre-Chorus

Chorus (w/ Riff 1): This time, repeat Fill 1 three times

Bridge/Solo:
  F#m                                      Em
e--------7^(9)-7-5----------5-7-7^(9)-7-5----------------------------|
B--/8-7------------8-7----7---------------7-5----5-7-7^(8)~~7-5---5--|
G---------------------------------------------------------------7----|
D--------------------------------------------------------------------|
A--------------------------------------------------------------------|
E--------------------------------------------------------------------|
                 F#m
e----------------------------12-12-12-14-14-14---14-15-17-14---------|
B---5-7-7^(8)~7-5-7---10-12^(14)-------------------------------------|
G--------------------------------------------------------------------|
D--------------------------------------------------------------------|
A--------------------------------------------------------------------|
E--------------------------------------------------------------------|
                    Em
e--------------------------------------------------------------------|
B---17^(19)^(17)-15--17^(19)^(17)-15-17-15-17-15-17^(19)^(17)--------|
G--------------------------------------------------------------------|
D--------------------------------------------------------------------|
A--------------------------------------------------------------------|
E--------------------------------------------------------------------|
                A
e--------------------------------------------------------------------|
B---15-17--15-15-14--------------------------------------------------|
G--------------------------------------------------------------------|
D--------------------------------------------------------------------|
A--------------------------------------------------------------------|
E--------------------------------------------------------------------|


Chorus: (as before, end with Fill 1 three times)
Related for Thank You Too tab