Song name
# A B C D E F G H I J K L M N O P Q R S T U V W X Y Z

My Morning Jacket - Remnants tab

Here's the whole song minus the solo, hope you enjoy. Evil Urges baby.

Intro

Guitar 1
E------------------------------------------|
B------------------------------------------|
G------------------------------------------|
D--------6--6--6--6------------------------|
A--------6--6--6--6------------------------|
E--------4--4--4--4------------------------|

(Verse riff)
Guitar 2
E------------------------------------------|
B------------------------------------------|
G------------------------------------------|
D------------------------------------------|
A--------------------4h6p4-----------------|
E--------4-4--7p4--------------------------|

(0:17)
Guitar 1
E------------------------------------------|
B------------------------------------------|
G------------------------------------------|
D------------------------------------------|
A---------------4b6p2----------------------|
E-----4--7p4-------------------------------|

Guitar 2
E-----------------------------------------|
B-------4---------------------------------|
G-------------6b8p4-----------------------|
D----6----6-------------------------------|
A-----------------------------------------|
E-----------------------------------------|

(0:30)
Both guitars play each chord 8 times
E-----------------------------------------|
B-----------------------------------------|
G----4-----6------------------------------|
D----4-----6------------------------------|
A----2-----4------------------------------|
E-----------------------------------------|

(0:56)
Both guitars
       x8    x4      x4   x8
E-------------------------------------|
B-------------------------------------|
G-------8-----10------8-----6---------|
D-------8-----10------8-----6---------|
A-------6------8------6----4----------|
E-------------------------------------|


Guitar 2
E---------11----------------------------|
B------------------14b16p12-------------|
G-----13----13--------------------------|
D---------------------------------------|
A---------------------------------------|
E---------------------------------------|

(1:12)
Both guitars
E-----------------------------------------------------------------------|
B-----------------------------------------------------------------------|
G------8--8---8-8-8-/-10----10--10----10-10-10--/--6----6--6----6-6-6---|
D------8--8---8-8-8-/-10----10--10----10-10-10--/--6----6--6----6-6-6---|
A------6--6---6-6-6-/--8-----8---8-----8--8--8--/--4----4--4----4-4-4---|
E-----------------------------------------------------------------------|

(1:42)
Guitar 2
E------7---8h10p8-----------------------------|
B---9----9------------------------------------|
G---------------------------------------------|
D---------------------------------------------|
A---------------------------------------------|
E---------------------------------------------|
Tap to rate this tab
# A B C D E F G H I J K L M N O P Q R S T U V W X Y Z