Guitaretab - guitar tabs
Song name
# A B C D E F G H I J K L M N O P Q R S T U V W X Y Z

My Morning Jacket - Touch Me Im Going To Scream Part 1 tab

Since this is the first tab of this song I cannot be 100% sure if this is correct.
This is how I play the song. It sounds good when I play it.

I hope youíll like it




My Morning Jacket
Touch me Iím going to scream part 1
Evil Urges


======================================================



E[|---------------------------------------------|
B[|---------------------------------------------|
G[|----------------4--------4--------4----------|
D[|-------------7-----7--------7--------7-------|
A[|----4-5---5-----------5-------5---------5----|
E[|--7------------------------------------------|

 
E[----------------------------------------|
B[----------------------------------------|
G[----------9--------9--------9-----------|
D[-------9-----9--------9--------9--------|
A[-7--7-----------7--------7--------7-----|
E[----------------------------------------|

E[----------------------------------------------|
B[----------------------------------------------|
G[-----------------6--------6--------6----------|
D[-------------7------7--------7--------7-------|
A[----4-5---5------------5--------5--------5----|
E[--7-------------------------------------------|

E[------------------------------------------||
B[------------------------------------------||
G[------------4--------4--------4-----------||  
D[---------2-----2--------2--------2--------||
A[------2-----------2--------2--------2-----||
E[--4---------------------------------------||

   Asus2
I know it sounds confusing 
       E
But it makes a lot of sense 
           Asus2
Row a boat across the ocean 
        E
Dig a hole under the fence 

Keybord solo:
Asus2		E



E[|---------------------------------------------|
B[|---------------------------------------------|
G[|----------------4--------4--------4----------|
D[|-------------7-----7--------7--------7-------|
A[|----4-5---5-----------5-------5---------5----|
E[|--7------------------------------------------|

 
E[----------------------------------------|
B[----------------------------------------|
G[----------9--------9--------9-----------|
D[-------9-----9--------9--------9--------|
A[-7--7-----------7--------7--------7-----|
E[----------------------------------------|

E[----------------------------------------------|
B[----------------------------------------------|
G[-----------------6--------6--------6----------|
D[-------------7------7--------7--------7-------|
A[----4-5---5------------5--------5--------5----|
E[--7-------------------------------------------|
[ Tab from: http://www.guitaretab.com/m/my-morning-jacket/183707.html ]
E[------------------------------------------||
B[------------------------------------------||
G[------------4--------4--------4-----------||  
D[---------2-----2--------2--------2--------||
A[------2-----------2--------2--------2-----||
E[--4---------------------------------------||


	Asus2
I can tell by the way you smile 
						E
Iím smiling too, I can see myself in you 

	Asus2
I can tell by the sounds you make 
						     E
When you are pleased, you see yourself in me 

E[|---------------------------------------------|
B[|---------------------------------------------|
G[|----------------4--------4--------4----------|
D[|-------------7-----7--------7--------7-------|
A[|----4-5---5-----------5-------5---------5----|
E[|--7------------------------------------------|

 
E[----------------------------------------|
B[----------------------------------------|
G[----------9--------9--------9-----------|
D[-------9-----9--------9--------9--------|
A[-7--7-----------7--------7--------7-----|
E[----------------------------------------|

E[----------------------------------------------|
B[----------------------------------------------|
G[-----------------6--------6--------6----------|
D[-------------7------7--------7--------7-------|
A[----4-5---5------------5--------5--------5----|
E[--7-------------------------------------------|

E[------------------------------------------||
B[------------------------------------------||
G[------------4--------4--------4-----------||  
D[---------2-----2--------2--------2--------||
A[------2-----------2--------2--------2-----||
E[--4---------------------------------------||





Asus2		
I need a human 
E
right by my side 
Asus2	  	
Untied,
E
untied


E[|---------------------------------------------|
B[|---------------------------------------------|
G[|----------------4--------4--------4----------|
D[|-------------7-----7--------7--------7-------|
A[|----4-5---5-----------5-------5---------5----|
E[|--7------------------------------------------|

 
E[----------------------------------------|
B[----------------------------------------|
G[----------9--------9--------9-----------|
D[-------9-----9--------9--------9--------|
A[-7--7-----------7--------7--------7-----|
E[----------------------------------------|

E[----------------------------------------------|
B[----------------------------------------------|
G[-----------------6--------6--------6----------|
D[-------------7------7--------7--------7-------|
A[----4-5---5------------5--------5--------5----|
E[--7-------------------------------------------|

E[------------------------------------------||
B[------------------------------------------||
G[------------4--------4--------(4)---------||  Second time here stop at 
D[---------2-----2--------2---------2-------||  the (4)
A[------2-----------2--------2---------2----|| 
E[--4---------------------------------------||

==================================================================

Enjoy!


Related for Touch Me Im Going To Scream Part 1 tab