Song name
# A B C D E F G H I J K L M N O P Q R S T U V W X Y Z

My Morning Jacket - Mahgeetah tab

this is one of the hardest songs to play, dont get discouraged


main thing
e|---1---1---1-----3---3--3--5--3-------------------------------------------|
B|---1---1---3-----3---3--3--3--3-------------------------------------------|
G|---2---2---2-----3---3--3--3--3-------------------------------------------|
D|--------------------------------------------------------------------------|
A|--------------------------------------------------------------------------|
E|--------------------------------------------------------------------------|
second thing
E  --------------------------------------------------------------------------|
B|---------------------------------------------------------------------------|
G|---------------------------------------------------------------------------|
D|---------------------------------------------------------------------------|
A|--/8---10--8--7-------/8---10--13--12--------------------------------------|
E|---------------------------------------------------------------------------|
third thing over an F chord
e|---------------------------------------------------------------------------|
B|---------------------------------------------------------------------------|
G|------14--12--------14--12------------14-12--------------------------------|
D|--15---------14-15----------14--15----------14-----------------------------|
A|---------------------------------------------------------------------------|
E|---------------------------------------------------------------------------|

fourth thing
e|---------------------------------------------------------------------------|
B|--------------------------3------------------------------------------------|
G|--5b7r3---2h3p2-3-2-3-5------5-----3h5p3---2-3--5--3-3h5p3----repeat-------|
D|---------------------------------------------------------------------------|
A|---------------------------------------------------------------------------|
E|---------------------------------------------------------------------------|
fifth thing
e|--1--1--1------------------------------------------------------------------|
B|--1--1--1------------------------------------------------------------------|
G|--2--2--2------------------------------------------------------------------|
D|--3--3--3----------3-------3--5--5b7r3------------repeat-------------------|
A|--3--3--3------3h5----3h5--------------------------------------------------|
E|--1--1--1------------------------------------------------------------------|

think thats about it

| /  slide up
| \  slide down
| h  hammer-on
| p  pull-off
| ~  vibrato
| +  harmonic
| x  Mute note
Tap to rate this tab
# A B C D E F G H I J K L M N O P Q R S T U V W X Y Z