Song name
# A B C D E F G H I J K L M N O P Q R S T U V W X Y Z

My Morning Jacket - Touch Me Im Going To Scream Part 1 tab

Artist: My Morning Jacket
Song: Touch Me Im Going to Scream, Pt.1
Album: Evil Urges
Tabbed by: B_Radz
Email: radzickib@gmail.com

This song is pretty repetitive. What you see here is everything that's heard on the album.

Intro/ Chorus / Outro 

         Touch me, I'm                     going to scream if you don't.....
         Inside I                          know you got the feeling.....
E[|-----------------------------------------------0-----0-------0-----------|
B[|--------------0----0-------0---------------------------------------------|
G[|----------2-----2-------2-------2----------4-----4-------4-------4-------|
D[|--------4---4-----4-------4-------4------6---6-----6-------6-------6-----|
A[|2-4-|-5------------------------------5/7-----------------------------7\5-|
E[|-------------------------------------------------------------------------|

E[|-------------------------------------------------------------------------|
B[|--------2-----2-------2------------------0-----0--------0----------------|
G[|----2-----2-------2--------2---------4-----4-------4--------4------------|
D[|--4---4-----4-------4--------4-----6---6-----6-------6--------6----------|
A[|-------------------------------5/7---------------------------------------|
E[|-------------------------------------------------------------------------|




  Asus2                            E
I know it sounds confusing, but it makes a lot of sense
        Asus2                        E
Throw a bone across the ocean, dig a hole under the fence


Asus2 [000220]
E     [022100]
Tap to rate this tab
# A B C D E F G H I J K L M N O P Q R S T U V W X Y Z