Song name
# A B C D E F G H I J K L M N O P Q R S T U V W X Y Z

My Morning Jacket - Evil Urges tab

Standard tuning

INTRO

E-----------------------------------------------------------|
B-----------------------------------------------------------|
G-----------------------------------------------------------|
D-------5---5------5---5----5---5-----5---5-----------------|
A-----------------------------------------------------------|
e-3-3-3---3----3-3---3---3-3--3---3-3---3-------------------|


---8---10--7-----8---8h10---7--------------------|
---8---8---8-----8---8------8--10--8-------------|
-------------------------------7---7-------------|
-------------------------------------------------|
-------------------------------------------------|
-------------------------------------------------|

End of intro     short filler thing
--8--10--3---|--------------7----------------|
--8--8---3---|-------8--10--8--10--8---------|
---------0---|-------7--7---7--7---7---------|
-------------|-------------------------------|
-------------|-------------------------------|
-------------|-------------------------------|


CHORDS (make up most of the song)
---3----5--3------|--3----3-----------------------------|
---4----6--3------|--5----3-----------------------------|
---5----7--4------|--5----4--4-5-4-------4--------------|
---5----7--5------|--5----5----------5-------5----------|
---3----5--5------|--3----5--------5---5---5------------|
-----------3------|-------3-----------------------------|

SOLO (played very fast)
-----------------------------------------------------------|
-----------------------------------------------------------|
--0--4p0-0-0-4p0-0--4p0-0--4-0-0--0---4p0-0--4p0-0-0-4h5---|
-----------------------------------------------------------|
-----------------------------------------------------------|
-----------------------------------------------------------|

-----------------------------------------------------------|
-------------------------------------------------------5---|
--0--4p0-0-0-4p0-0--4p0-0--4-0-0--0---4p0-0--4p0-0-0-4-----|
-----------------------------------------------------------|
-----------------------------------------------------------|
-----------------------------------------------------------|

-----------------------------------------------------------|
----3p0---0h3p0---0h3p0----------3p0---0h3p0---3h5---------|
--0-----0-------0-------0------0-----0-------0-------------|
-----------------------------------------------------------|
-----------------------------------------------------------|
-----------------------------------------------------------|

------------------------------------------|
-----15p12----12-15p12----12-15p12--------|
--12-------12----------12----------12-----|
------------------------------------------|
------------------------------------------|
------------------------------------------|

-----------------------------12---|
-----15p12----12-15p12----12------|
--12-------12----------12---------|
----------------------------------|
----------------------------------|
----------------------------------|


Thats basically it. Hope the solo makes sense.
Tap to rate this tab
# A B C D E F G H I J K L M N O P Q R S T U V W X Y Z