Song name
# A B C D E F G H I J K L M N O P Q R S T U V W X Y Z

My Morning Jacket - Circuital tab

0k this is the newest MMJ song, played it live for the first time yesterday. its called
there are two guitar parts, one acoustic (Gtr. 2) and one electric (Gtr.1)

intro: (Gtr. 1)

e ---------------------------------|
b ---------------------------------|
g ---------------------------------|
d ----8------8----------8------8---|
a --8---8--8--8-------8---8--8--8--|
e 6-------6----6----6-------6----6-|

e ------------------------------------------------|
b ------------------------------------------------|
g ------------------------------------------------|
d -----4--7--4---4-7-4---------4--7--4---4-7-4----|
a ---5----------5-----5------5----------5-----5---|
e ------------------------------------------------|

e--------------------------------------|
b--------------------------------------|
g--------------------------------------|
d --5--8--5--5-8-5----5--8--5--5-8-5---|
a 6---------6-----6-6---------6-----6--|
e--------------------------------------|

e------------------------------------------|
b------------------------------------------|
g------------------------------------------|
d---7--10--7--7-10-7-----7--10--7--7-10-7--|
a 8----------8------8-8-----------8------8-|
e------------------------------------------|

this is where vs. 1 starts and its basically the same riffs as the intro so here it is:

Vs. 1:

e--------------------------------------|
b--------------------------------------|
g--------------------------------------|
d --5--8--5--5-8-5----5--8--5--5-8-5---|
a 6---------6-----6-6---------6-----6--|
e--------------------------------------|

e ------------------------------------------------|
b ------------------------------------------------|
g ------------------------------------------------|
d -----4--7--4---4-7-4---------4--7--4---4-7-4----|
a ---5----------5-----5------5----------5-----5---|
e ------------------------------------------------|

e--------------------------------------|
b--------------------------------------|
g--------------------------------------|
d --5--8--5--5-8-5----5--8--5--5-8-5---|
a 6---------6-----6-6---------6-----6--|
e--------------------------------------|

e------------------------------------------|
b------------------------------------------|
g------------------------------------------|
d---7--10--7--7-10-7-----7--10--7--7-10-7--|
a 8----------8------8-8-----------8------8-|
e------------------------------------------|

e--------------------------------------|
b--------------------------------------|
g--------------------------------------|
d --5--8--5--5-8-5----5--8--5--5-8-5---|
a 6---------6-----6-6---------6-----6--|
e--------------------------------------|

e ------------------------------------------------|
b ------------------------------------------------|
g ------------------------------------------------|
d -----4--7--4---4-7-4---------4--7--4---4-7-4----|
a ---5----------5-----5------5----------5-----5---|
e ------------------------------------------------|

e--------------------------------------|
b--------------------------------------|
g--------------------------------------|
d --5--8--5--5-8-5----5--8--5--5-8-5---|
a 6---------6-----6-6---------6-----6--|
e--------------------------------------|

e------------------------------------------|
b------------------------------------------|
g------------------------------------------|
d---7--10--7--7-10-7-----7--10--7--7-10-7--|
a 8----------8------8-8-----------8------8-|
e------------------------------------------|

Chorus type thing: (Gtr. 2 Capo on 3)

at this part the acoustic guitar, with a capo on 3, plays a G and D with inversions
in:

     G  G     G     G     D  G
e-3--3--3--0--3--3--3--3--0--3--3--|
b----2--2--3--2-----2--2--0--2-----|
g----0--0--2--0-----0--0--0--0-----|{x2}
d----0--0--0--0-----0--0--2--0-----|
a----0--0--0--0-----0--0--3--0-----|
e----3--3--3--3-----3--3--2--3-----|

Then it goes back into the verse:


Vs. 2: (Gtr. 1)

e--------------------------------------|
b--------------------------------------|
g--------------------------------------|
d --5--8--5--5-8-5----5--8--5--5-8-5---|
a 6---------6-----6-6---------6-----6--|
e--------------------------------------|

e ------------------------------------------------|
b ------------------------------------------------|
g ------------------------------------------------|
d -----4--7--4---4-7-4---------4--7--4---4-7-4----|
a ---5----------5-----5------5----------5-----5---|
e ------------------------------------------------|

e--------------------------------------|
b--------------------------------------|
g--------------------------------------|
d --5--8--5--5-8-5----5--8--5--5-8-5---|
a 6---------6-----6-6---------6-----6--|
e--------------------------------------|

e------------------------------------------|
b------------------------------------------|
g------------------------------------------|
d---7--10--7--7-10-7-----7--10--7--7-10-7--|
a 8----------8------8-8-----------8------8-|
e------------------------------------------|

e--------------------------------------|
b--------------------------------------|
g--------------------------------------|
d --5--8--5--5-8-5----5--8--5--5-8-5---|
a 6---------6-----6-6---------6-----6--|
e--------------------------------------|

e ------------------------------------------------|
b ------------------------------------------------|
g ------------------------------------------------|
d -----4--7--4---4-7-4---------4--7--4---4-7-4----|
a ---5----------5-----5------5----------5-----5---|
e ------------------------------------------------|

e--------------------------------------|
b--------------------------------------|
g--------------------------------------|
d --5--8--5--5-8-5----5--8--5--5-8-5---|
a 6---------6-----6-6---------6-----6--|
e--------------------------------------|

e------------------------------------------|
b------------------------------------------|
g------------------------------------------|
d---7--10--7--7-10-7-----7--10--7--7-10-7--|
a 8----------8------8-8-----------8------8-|
e------------------------------------------|

Then Gtr. 2 Plays chorus 4 times:

Chorus: (Gtr. 2 Capo on 3)

    G  G     G     G     D  G
e-3--3--3--0--3--3--3--3--0--3--3--|
b----2--2--3--2-----2--2--0--2-----|
g----0--0--2--0-----0--0--0--0-----|{x4}
d----0--0--0--0-----0--0--2--0-----|
a----0--0--0--0-----0--0--3--0-----|
e----3--3--3--3-----3--3--2--3-----|

mini solo: (Gtr. 2)

e--------------------------------------------|
b--------------------------------------------|
g--------------------------------------------|
d--------------------------------------------|
a------3-5b7r5--6-6-6-5-5-5-3-3-3-1-3-1------|
e--5-6----------------------------------3-1--|

Now the chorus becomes sort of a verse in its own but he has some chords that aren't
and he just combined the notes that the song is based on. sorry i cant be of more help here
i just play the chord progression over and over during this part and it still sounds 
good so here is how i play it:

Chorus (Gtr. 2):

    G  G     G     G     D  G
e-3--3--3--0--3--3--3--3--0--3--3--|
b----2--2--3--2-----2--2--0--2-----|
g----0--0--2--0-----0--0--0--0-----|{x?}
d----0--0--0--0-----0--0--2--0-----|
a----0--0--0--0-----0--0--3--0-----|
e----3--3--3--3-----3--3--2--3-----|

then after they kind of just jam to that beat, the intro repeats:

(Gtr 1)

e ---------------------------------|
b ---------------------------------|
g ---------------------------------|
d ----8------8----------8------8---|
a --8---8--8--8-------8---8--8--8--|
e 6-------6----6----6-------6----6-|

e ------------------------------------------------|
b ------------------------------------------------|
g ------------------------------------------------|
d -----4--7--4---4-7-4---------4--7--4---4-7-4----|
a ---5----------5-----5------5----------5-----5---|
e ------------------------------------------------|

e--------------------------------------|
b--------------------------------------|
g--------------------------------------|
d --5--8--5--5-8-5----5--8--5--5-8-5---|
a 6---------6-----6-6---------6-----6--|
e--------------------------------------|

e------------------------------------------|
b------------------------------------------|
g------------------------------------------|
d---7--10--7--7-10-7-----7--10--7--7-10-7--|
a 8----------8------8-8-----------8------8-|
e------------------------------------------|

End.

p.s. i tabbed this off of a live version so if its wrong its because i heard him
and not playing the recorded version.  youtube only holds unprofessionally recorded versions
i could not make out the notes solo:(. WHEN I GET A CHANCE I WILL TAB THE SOLO I PROMISE!!!!!!!!!
Tap to rate this tab
 
# A B C D E F G H I J K L M N O P Q R S T U V W X Y Z