My Morning Jacket - Im Amazed tab

-------------------------------------------------------------------------------
			     I'm Amazed (solo) - My Morning Jacket
-------------------------------------------------------------------------------
Tabbed by:HellBoy9393
Email:geoff911@hotmail.com

One up for the MMJ fans! I did my best for this one. There are actually 2 solos (you can 
tell by the change in guitar tone), but I've merged them into one here. Probably not 
how MMJ actually plays it, but it works for me.

Tuning: Standard EADGBe (The whole song should be played with a capo on the 1st fret, 
but for the solo it doesn't matter because there are no open strings)

1st solo:

e|-----------------------------------------------------4--4--4~-------------|
B|-------------------------------------6b7-6b7--6-6--6----------------------|
G|--6b8-6b8~--6pb8b6b8b6--4-----4-6-----------------------------------------|
D|---------------------------6------6---------------------------------------|
A|--------------------------------------------------------------------------|
E|--------------------------------------------------------------------------|

e|------4-----4--------8b9-8b9--8-8--8b9-8----------------------------------|
B|------4-----4----------------------------/9---9---------------------------|
G|--6b8---6b8---6b8~--------------------------8-----------------------------|
D|--------------------------------------------------------------------------|
A|--------------------------------------------------------------------------|
E|--------------------------------------------------------------------------|

e|-----------------------------------------------------4~-------------------|
B|--9p7---9~--9-9-9-7-7\6~--6b7-6b7-6~--6--6b7b6-4--------------------------|
G|------8------------------------------------------6-5----5b6--5~/----------|
D|--------------------------------------------------------------------------|
A|--------------------------------------------------------------------------|
E|--------------------------------------------------------------------------|

2nd solo:

e|--------------------------------------------------------------------------|
B|--------------------------------------------------------------------------|
G|----------3b5-3~--3b4-------------------3b5-3~--6p5-6p5-6p5---------------|
D|------6~--------------6-6-----------6~------------------------------------|
A|--6-8---------------------4~----6-8-------------------------4-------------|
E|--------------------------------------------------------------------------|

e|--------------------------------------------------------------------------|
B|---------------------------------------------9--12b13--12b13--------------|
G|---------------------------------------8-10-------------------------------|
D|------------------------6~--8p6--8/10-------------------------------------|
A|--4b6--4~--4-4--4--6--8---------------------------------------------------|
E|--------------------------------------------------------------------------|

e|---------------------9~--9p8-9p8----9p8----9p8-9p8--9p8-9/11-11-11~-------|
B|--11p9-11p9-11p9-11-------------------------------------------------------|
G|--------------------------------6~-----6~---------------------------------|
D|--------------------------------------------------------------------------|
A|--------------------------------------------------------------------------|
E|--------------------------------------------------------------------------|

e|--11-11-11/13-13-11-11~~--9p8-9p8-9-9-9-9-9-9-9p8---9/11\9-9-9p8------------|
B|----------------------------------------------------------------------------|
G|-------------------------------------------------6~--------------6~-6/13~---|
D|----------------------------------------------------------------------------|
A|----------------------------------------------------------------------------|
E|----------------------------------------------------------------------------|


************************************

| /   slide up
| \   slide down
| h   hammer-on
| p   pull-off
| ~   vibrato
| +   harmonic
| x   Mute note
| b   Bend
| pb  Pre-bend
| br  Bend release
| pbr Pre-bend release
| brb Bend release bend

************************************
Tap to rate this tab
 
# A B C D E F G H I J K L M N O P Q R S T U V W X Y Z