Song name
# A B C D E F G H I J K L M N O P Q R S T U V W X Y Z

My Morning Jacket - Dancefloors tab

One of the best mmj songs ever and it wasn't even tabbed so here it is..

Band: My Morning Jacket
Song:Dancefloors
Album: It Still Moves

intro:
e------8-8----8-----------8-8----8------------------|
B-9b------9b---9b~---9b-----9b---9b~--------------|
G-------------------10------------------------------|
D---------------------------------------------------|
A---------------------------------------------------|
E---------------------------------------------------|

e------8-8----8-------------------------------------------|
B-9b------9b---9b~---9h11p9--7-5--7--------------------|
G-------------------10------------------------------------|
D---------------------------------------------------------|
A---------------------------------------------------------|
E---------------------------------------------------------|

e------------------------------------------|
B------------------------------------------|
G----------7-------------------------------|
D------7h9-------7h9--5----2--0------------|
A------------------------------------------|
E------------------------------------------|

e----------------------------------------------------------------|
B--------------------------7--8-8-7------------------------------|
G-----02s4---2--0-----0---7--7-7-7---9b9b--7-------------------|
D--2----------------2------7-------------------------------------|
A----------------------------------------------------------------|
E----------------------------------------------------------------|


 Verse 1:
G         Bm         C         G
Daybreak. nightfall. long as I believe
            C                        G
There ain't nothing glowin like this skin you're showin
         Am              D
And the keys you gave to me

G           Bm              C               G
Nightjails. poolhalls. some things are everywhere
           C                 G
So for the past I'm diggin a grave so big,
        Am             D
It will swallow up the sea

Chorus:

         Am    D          G  Em
Oh I know...     that it's easy...
            Am     D          G
There's no trouble waitin for me


Verse 2:

G            Bm                C                 G
Dancefloors. headlights. in my blood there's gasoline
       C              G
For an urban boy on a dirty tour
   Am           D
I never felt so clean

G      Bm               C        G
Loaded questions in an automatic world
         C                  G
You just won't be seein the things you need,
   Am                 D
As if you thought you would

Chorus:

         Am    D          G  Em
Oh I know...     it's never easy...
            Am     D          G
There's no trouble waitin for me

2nd chorus is played twice.
Tap to rate this tab
 
# A B C D E F G H I J K L M N O P Q R S T U V W X Y Z