Song name
# A B C D E F G H I J K L M N O P Q R S T U V W X Y Z

My Morning Jacket - Librarian tab

My Morning Jacket
Librarian
Tabbed by: Martijn Loonstra

I couldnít find a decent tab for this song, so I tried to write it out myself. It sounds 
pretty much like My Morning Jacket plays it, but if you have improvements, please make them!

Itís played pretty quick, so itís easiest to play the bass-notes with your thumb, the B- 
and high E-string with your ring-finger, G-string with your middle-finger and the 
D-string with your index-finger. This changes a bit for the Dm- and G-chords, but 
you should be able to figure this out on your own :P

Have fun!

P.S. Iím pretty lazy so Iíve only tabbed a little bit of the song, if anyone feels the 
need to tab it completely then feel free!


Capo 3

Verse
    Am 		   Em      	Am     Em    Am    Em	Dm 2x
e|---------0--------------0-----------------------------------1--1------|
B|-----1--------1------0-------0-----------------------------3-3----3-3-|
G|----2-2-----2-------0-0----0----------------------------------2----2--|
D|-------2-----2---------2----2----------------------------0------------|
A|-0----------------2---------------------------------------------------|
E|----------------------------------------------------------------------|

Chorus
    Am Em Am Em Am Em  Dm			G		C 2x
e|------------------------------------------------3--------------0------|
B|---------------------------------------------3--------3-----1-------1-|
G|--------------------------------------------0-0----0-------2-2----2---|
D|-----------------------------------------------0-----0--------0----0--|
A|---------------------------------------------------------3------------|
E|-----------------------------------------3----------------------------|



Am              Em         Am              Em
walk across the courtyard, towards the library.
Am              Em         Dm
i can hear the insects buzz and the leaves 'neath my feet...

ramble up the stairwell, into the hall of books...
since we got the interweb these hardly get used.

duck into the men's room... combing thru my hair...
when god gave us mirrors he had no idea...

looking for a lesson in the periodicals...
there i spy you listening to the AM radio...

karen of the carpenters- singing in the rain...
another lovely victim of the mirror's evil way.

it's not like you're not trying, with a pencil in your hair
to defy the beauty the good lord put in there...

Am            Em        Am          Em
simple little bookworm- buried underneath...
Am               Em
is the sexiest librarian
Dm                         G                       C
take off those glasses and let down your hair for me.

Am                      Em        Am        Em
so i watch you thru the bookcase- imaging a scene:
Am           Em               Dm
you and i at dinner, spending time, then to sleep.

and what then would i say to you- lying there in bed?
these words, with a kiss, i would plant in your head:

"what is it inside our heads that makes us do the opposite?
makes us do the opposite of what's right for us?

cause everything'd be grrreat...and everything'd be good...
if everybody gave...like everybody could."

sweetest little bookworm. hidden underneath...
is the sexiest librarian...

Am                         G                      C
take off those glasses and let your hair down for me.
Am                         G                     C
take off those glasses and let your hair down for me.

Am            Em      Am             Em
simple little beauty- heaven in your breath.
Am              Em         Dm
the simplest of pleasures- the world at it's best.
Tap to rate this tab
 
# A B C D E F G H I J K L M N O P Q R S T U V W X Y Z