My Morning Jacket - Holdin On To Black Metal tab

E:--------------------------|
B:--------------------------|
G:--------------------------|
D:--------------------------|
A:0--2-3-0--7-5--0--7-5-3-5-|
E:--------------------------|

the horns come in and play this:

E:0------------3-3--5-5-----|
B:1------------5-5--7-7-----|
G:2------------5-5--7-7-----|
D:2------------5-5--7-7-----|
A:0------------3-3--5-5-----|
E:--------------------------|

during the guitar solo he plays around with this riff:

E:-------------------------|
B:-------------------------|
G:2-2-2-2-2-2-2p0---0h2----|
D:----------------2--------|
A:-------------------------|
E:-------------------------|
Tap to rate this tab
 
# A B C D E F G H I J K L M N O P Q R S T U V W X Y Z