Song name
# A B C D E F G H I J K L M N O P Q R S T U V W X Y Z

My Morning Jacket - Holdin On To Black Metal tab

My Morning Jacket
Holdin On To Black Metal

Tuning: Standard

Intro

e|-------------------------|
B|-------------------------|
G|-------------------------|
D|----------2-0---2-0------|
A|0-0-2-3-0-----0-----2-3--|
E|-------------------------|


Horn section during verse and chorus

e|------------55--77--|
B|1-----------55--77--|
G|2-----------77--99--|
D|2-----------77--99--|
A|0-----------55--77--|
E|--------------------|
Tap to rate this tab
 
# A B C D E F G H I J K L M N O P Q R S T U V W X Y Z