Song name
# A B C D E F G H I J K L M N O P Q R S T U V W X Y Z

My Morning Jacket - Golden chords

Highlighted       Show chord diagrams
Capo on 1st

Tuning: EBEGHe (E minor Tuning)

Chords:

F:      000100
Fsus4:  002220
F(2):   000440
F6sus4: 005670
Fmaj7:  007890
Bb:     555655
C:      777877
Dm:     999999


INTRO (x2)

e|---------------------------------------------------------------------------|
B|--0-----0------2-----2------2-----2------4-----4------4-----4----5-----5---|
G|------1---1--------1---1--------2---2--------2---2--------4---4------4---4-|
D|----0------------0------------2------------2------------4----------4-------|
A|----0------------0------------0------------0------------0----------0-------|
E|----0------------0------------0------------0------------0----------0-------|



e|--------------------------------0---------0---------0---------0------------|
B|--5-----5------7-----7------------7---------7---------7---------7----------|
G|------6---6--------6---6------6-----6---6-----6---6-----6---6-----6--------|
D|----5------------5----------0---------0---------0---------0----------------|
A|----0------------0----------0---------0---------0---------0----------------|
E|----0------------0----------0---------0---------0---------0----------------|




F                           Fsus4
Watchin' a stretch of road, miles of light explode.
F(2)                     F6sus4
Driftin' off a thing i'd never done before

F                         Fsus4
Watchin' a crowd roll in, out go the lights it begins.
F(2)                    F6sus4
A feelin' in my bones i never felt before


Fmaj7    F6sus4    Fmaj7    F6sus4


Bb            C            F                 Dm
People always told me that bars are dark and lonely
    Bb            C                     F
And talk is often cheap and filled with air.

Bb                  C
Sure sometimes they thrill me
    F                  Dm
But nothin' could ever chill me.
         Bb                C         F
Like the way they make the time just disappear


REPEAT INTRO x1


F                           Fsus4
Feelin' you are here again. hot on my skin again.
F(2)                    F6sus4
Feelin good a thing i'd never known before

F                          Fsus4                          
What does it mean to feel, millions of dreams come real
  F(2)                   F6sus4               
A feelin' in my soul i'd never felt before


Fmaj7    F6sus4    Fmaj7    F6sus4


    Bb         C           F                  Dm
And you always told me, no matter how long it holds me 
      Bb             C                F 
If it falls apart or makes us millonaires

       Bb               C
You'll be right here forever.
         F               Dm
We'll go thru this thing together
       Bb              C                   F
And on heaven's golden shore we'll lay our heads


REPEAT INTRO x1


OUTRO

Fmaj7    F6sus4    Fmaj7    F6sus4
    
Fmaj7    F6sus4    Fmaj7    F6sus4
Tap to rate this tab
# A B C D E F G H I J K L M N O P Q R S T U V W X Y Z