Song name
# A B C D E F G H I J K L M N O P Q R S T U V W X Y Z

My Morning Jacket - Off The Record tab

Artist: My Morning Jacket
Song: Off the Record Solo/Riff
Album: Z
Tabbed By: quietriot03 ((@t)) yahoo.com

This is the part that's played at the end of the chorus. (1:00 & 2:10)

e-----------------------------------------------------------------|
B-----------------------------------------------------------------|
G---10p6-6-6---6-6---10p6-6-6---6-6---/11-10-8-6-8------------6\--|
D---------------------------------------------------6-6-6-6h8-----|
A-----------------------------------------------------------------|
E-----------------------------------------------------------------|

e-----------------------------------------------------------------|
B------------------------------------------------9----------------|
G---10p6-6-6---6-6---10p6-6-6---6-6---/11-10-8-6------------------|
D-----------------------------------------------------------------|
A-----------------------------------------------------------------|
E-----------------------------------------------------------------|
Tap to rate this tab
 
# A B C D E F G H I J K L M N O P Q R S T U V W X Y Z