Guitaretab - guitar tabs
Song name
# A B C D E F G H I J K L M N O P Q R S T U V W X Y Z

My Morning Jacket - Gideon tab

I've seen this posted before, but this is the way Broemel played when they were on
City Limits.  It is played with one guitar until the chorus when a second guitar starts
power chords through the end of the song. It is just G, C, and F (Bb, Eb, Ab w/o capo) 
is easy to figure out on your own.

Capo 3

standard tuning; key of Bb (G with capo)

play the following riffs for the chords shown
[ Tab from: http://www.guitaretab.com/m/my-morning-jacket/71984.html ]
 G
e|--------------1--3--------------------------------------------------------|
B|-----0--1--3--------0--1--0-----------------------------------------------|
G|--------------------------------------------------------------------------|
D|------------------------------x2------------------------------------------|
A|--------------------------------------------------------------------------|
E|-----3--3--3--3--3--3--3--3-----------------------------------------------|
 C
e|--------------1--3--------------------------------------------------------|
B|-----0--1--3--------0--1--0-----------------------------------------------|
G|--------------------------------------------------------------------------|
D|------------------------------x2------------------------------------------|
A|-----3--3--3--3--3--3--3--3-----------------------------------------------|
E|--------------------------------------------------------------------------|
 F
e|--------------0--1--0-----------------------------------------------------|
B|-----0--1--3-----------3--1-----------------------------------------------|
G|--------------------------------------------------------------------------|
D|-----3--3--3--3--3--3--3--3---x2------------------------------------------|
A|--------------------------------------------------------------------------|
E|--------------------------------------------------------------------------|

Intro: G C F G

G        C
Gideon, what have you told us at all?
F                                 G
Make a sound, come down off the wall
 G                  C
Religion, should appeal to the hearts of the young
F                               G
Who are you? What have you become?

  Chorus (1st guitar):
    F
Animal, come on

What does this remind you of.

  Chorus (2nd guitar):
     F  C      G
Animal, come on
               F C                G
What does this      remind you of.


Verse 2:
Truly, truly we have become
Hated and feared for something we don't want
Listen, listen, most of us believe that this is wrong.


Repeat chorus 3 times

   Outro  2nd guitar

  E|-18-16-15-------------|
  B|---------18-16-15-----|
  G|-----------------17-15|
  E|----------------------|
  B|----------------------|
  G|----------------------|
Related for Gideon tab
Advertisement will be closed in 10 seconds