Song name
# A B C D E F G H I J K L M N O P Q R S T U V W X Y Z

My Passion - Crazy And Me tab

Song:      Crazy and Me
Artist:    My Passion
Album:     Corporate Flesh Party
Official Myspace: www.myspace.com/mypassion
Official website: www.mypassion.co.uk

Tabbed by Jo (aka. jo.oncolourtv / jo.JAWBREAKER)

>>>>>>>>>>>>>>PLEASE READ:<<<<<<<<<<<<<<<
This is not just the intro! The intro riff makes up most of the song. I didn't want to 
that this tab was the whole song because that would be a lie. The only things it's 
is the solo and chorus... which I may tab another time.


This is the first tab I've ever done.
I'm sorry that I've just done this riff, I did try tabbing the rest but it was pretty 
Anyway, this riff is pretty much most of the song :) I'll probably give the rest another 
some time...

I'm pretty sure it's right...

DROP D TUNING

b = bend

Intro:
e---------------------------------------------|
B---------------------------------------------|
G---------------------------------------------|
D----3b---3-------3b--------------------------|
A--00---55-535--00--5-------------------------|
D--00-----------00----------------------------|

Verse:

'Crazy and meeeeee'
e---------------------------------------------|  Play this 4 times.
B---------------------------------------------|
G---------------------------------------------|
D----3b---3-------3b----3---------------------|
A--00---55-535--00----55-5-66-----------------|
D--00-----------00---------66-----------------|

Chorus:

'There's a boy...'
Tap to rate this tab
# A B C D E F G H I J K L M N O P Q R S T U V W X Y Z