Song name
# A B C D E F G H I J K L M N O P Q R S T U V W X Y Z

My Passion - Thanks For Nothing tab

Tabbed by Jo Laikin by ear. 

Song: Thanks For Nothing
Artist: My Passion

DROP D TUNING

Intro: 
0.00 - 0.32
e--------------------------------|
B--------------------------------|
G--------------------------------|
D------3-----3------3------------|
A---------5------0------5----0-1-|hold last note on
D--0-----------------------------| 

e--------------------------------|
B--------------------------------|
G--------------------------------|
D------3-----3------3------------|
A---------5------0------5----0-1-|hold last note on
D--0-----------------------------|

e----------------------------------------------------------------------|
B----------------------------------------------------------------------|
G---------------------------------------------------5-----------5------|
D---3----3-------3---------3---3-----3----3------3-----3------3--------|
A-----5-------0----5--0-1----5----------5------5------------3-----0-1--|
D-0--------------------------------5-----------------------------------|

repeat whole section again
Tap to rate this tab
# A B C D E F G H I J K L M N O P Q R S T U V W X Y Z