Song name
# A B C D E F G H I J K L M N O P Q R S T U V W X Y Z

My Passion - Crazy And Me tab

Played in Drop D

*** Tabbed by Jonny Davies ***

Main Riff Played for most of the song

p= Pull off
/= Slide

E-------------------------------------------------|
B-------------------------------------------------|
G-------------------------------------------------|
D-----3-----3p0----------3------------------------|
A-0-0---0-0-----3/5--0-0---0-0-0-0-6-6-6-6--------|
D-0-0---0-0----------0-0---0-0-0-0-6-6-6-6--------|

"There's a boy.."

E----------------------------------                               ---------------------|
B----------------------11-11-10-10-       Then..                  -----------------10--|
G--------7-7-10-10-9-9-------------                               -------5-5-9-9-7-----|
D----8-8---------------------------                               ---7-7---------------|
A-8--------------------------------                               -7-------------------|
D-8--------------------------------                               -7-------------------|

Not sure about the solo guys sorry, will try to work it out soon :)
Tap to rate this tab
 
# A B C D E F G H I J K L M N O P Q R S T U V W X Y Z