Guitaretab - guitar tabs
Song name
# A B C D E F G H I J K L M N O P Q R S T U V W X Y Z

My Ruin - Monster tab

Artist: My Ruin
Song: Monster
Tabbed by: The Soulthief

Tuning standaard: E A D G B e

Intro:
                     Repeat:  4x
|------------------------------------|
|------------------------------------|
|----------11--10--------------------|
|--6-6-7-6-11--10--8--8-9-5-6-7-8-9--|
|--6-6-7-6-9---8---8--8-9-5-6-7-8-9--|
|--4-4-5-4---------6--6-7-3-4-5-6-7--|

Verse:
|------------------------------------------|
|------------------------------------------|
|------------------------------------------|
|--6-6-6------6-6-6------6-6-6------6-6-6--|
|--6-6-6------6-6-6------6-6-6------6-6-6--|
|--4-4-4------4-4-4------4-4-4------4-4-4--|

Play Intro
Play verse
[ Tab from: http://www.guitaretab.com/m/my-ruin/126735.html ]
Solo:
|------------2--1------------------|
|----------------------------------|
|--1-1-2-1-------3--3-4-0-1-2-3-4--|
|----------------------------------|
|----------------------------------|
|----------------------------------|

|------------2--1----|
|--------------------|
|--1-1-2-1-------3~--|
|--------------------|
|--------------------|
|--------------------|


Bridge:
|---------------------------|
|---------------------------|
|---------------------------|
|---------------------------|
|--4----5----4----2---3-----|
|---------------------------|

Play the intro about... 8 times instaid of 4 

Enjoy!

If there are some problems.. please mail me,
chaosmarcel@hotmail.com
Related for Monster tab
Advertisement will be closed in 10 seconds