Song name
# A B C D E F G H I J K L M N O P Q R S T U V W X Y Z

My Ruin - Beauty Fiend tab

-----------------------------------------------------------------------------
			     BEAUTY FIEND - My Ruin
-----------------------------------------------------------------------------
Tabbed by:colourofanger
Email:colour_of_anger@hotmail.com

Tuning:standard

Intro
e|-------------------------------------------------------------------------|
B|-------------------------------------------------------------------------|
G|-------------------------------------------------------------------------|
D|-3-3-5-3-3-3-3-1-3-3-3-3-5-3-3-5-7-8-3-3-5-3-3-3-3-1-3-3-3-3-5-3-3-8-7-5-|
A|-3-3-5-3-3-3-3-1-3-3-3-3-5-3-3-5-7-8-3-3-5-3-3-3-3-1-3-3-3-3-5-3-3-8-7-5-|
E|-3-3-5-3-3-3-3-1-3-3-3-3-5-3-3-5-7-8-3-3-5-3-3-3-3-1-3-3-3-3-5-3-3-8-7-5-|

e|-------------------------------------------------------------------------|
B|-------------------------------------------------------------------------|
G|-------------------------------------------------------------------------|
D|-3-3-5-3-3-3-3-1-3-3-3-3-5-3-3-5-7-8-3-3-5-3-3-3-3-1-3-3-3-3-5-3-3-7-5-4-|
A|-3-3-5-3-3-3-3-1-3-3-3-3-5-3-3-5-7-8-3-3-5-3-3-3-3-1-3-3-3-3-5-3-3-7-5-4-|
E|-3-3-5-3-3-3-3-1-3-3-3-3-5-3-3-5-7-8-3-3-5-3-3-3-3-1-3-3-3-3-5-3-3-7-5-4-|

e|-----------|
B|-----------|
G|-----------|
D|-5-3-3-3/4-|
A|-5-3-3-3/4-|
E|-5-3-3-3/4-|

Verse (comes in about halfway through)
e|-----------|        e|---------------------|
B|-----------|        B|---------------------|
G|-----------|        G|---------------------|
D|-----------|        D|---------5-5-5-3-3-3-|
A|-3-7-5-6-3-|        A|-4/5-4/5-5-5-5-3-3-3-|
E|-3-7-5-6-3-|x3 then E|-4/5-4/5-5-5-5-3-3-3-| 

"Scars... Wounds..."
e|---------------------------------|
B|---------------------------------|
G|---------------------------------|
D|-3-5--3-7-3-5--3-7-5-4-5-3-3-3/4-|
A|-3-5--3-7-3-5--3-7-5-4-5-3-3-3/4-|
E|-3-5--3-7-3-5--3-7-5-4-5-3-3-3/4-|

Chorus
e|-------------------------------------------------|
B|-------------------------------------------------|
G|-------------------------------------------------|
D|-3-3-3-5-5-5-3-3-3-7-7-7-3-3-3-5-5-5-3-3-3-3-3-3-|
A|-3-3-3-5-5-5-3-3-3-7-7-7-3-3-3-5-5-5-3-3-3-3-3-3-|
E|-3-3-3-5-5-5-3-3-3-7-7-7-3-3-3-5-5-5-3-3-3-3-3-3-|

"Can't you see beyond my skin..."
e|-------------------------------------------------------|
B|-------------------------------------------------------|
G|-------------------------------------------------------|
D|-3-7-5-6-3-3-7-5-6-3-3-7-5-6-3-4/5-4/5-3-3-7-5-4-5-3-3-|
A|-3-7-5-6-3-3-7-5-6-3-3-7-5-6-3-4/5-4/5-3-3-7-5-4-5-3-3-|
E|-3-7-5-6-3-3-7-5-6-3-3-7-5-6-3-4/5-4/5-3-3-7-5-4-5-3-3-|x2

| /  slide up
| \  slide down
| h  hammer-on
| p  pull-off
| ~  vibrato
| +  harmonic
| x  Mute note

=============================================================================
Tap to rate this tab
# A B C D E F G H I J K L M N O P Q R S T U V W X Y Z