Song name
# A B C D E F G H I J K L M N O P Q R S T U V W X Y Z

My Ruin - Stick It To Me tab

Author/Artist: My Ruin
Title: Stick it To Me
Album: A Prayer Under Pressure...
Tabbed By: Paulska
E-mail Address: bulletformy409@btinternet.com

Tuning: C G C F A D




Intro:

|---------------------------------|---------------------------------
|---------------------------------|---------------------------------
|---------------------------------|---------------------------------	X2
|---------------------------------|---------------------------------
|---------------------------------|---------------------------------
|/4-3-3-3-4-3-3-3-4-3-3-3-4-3-3-3-|-4-3-3-3-4-3-3-3-4-3-3-3-4-3-3-3-

|---------------------------------|---------------------------------
|---------------------------------|---------------------------------
|---------------------------------|---------------------------------
|-4-3-3-3-4-3-3-3-4-3-3-3-4-3-3-3-|-6-2-2-2-6-2-2-2-6-2-2-2-6-2-2-2-
|-4-3-3-3-4-3-3-3-4-3-3-3-4-3-3-3-|-6-2-2-2-6-2-2-2-6-2-2-2-6-2-2-2-
|-4-3-3-3-4-3-3-3-4-3-3-3-4-3-3-3-|-6-2-2-2-6-2-2-2-6-2-2-2-6-2-2-2-

|---------------------------------|---------------------------------
|---------------------------------|---------------------------------
|---------------------------------|---------------------------------
|-4-3-3-3-4-3-3-3-4-3-3-3-4-3-3-3-|-5-4-4-4-5-4-4-4-7-7-7-7-7-7-7-7-
|-4-3-3-3-4-3-3-3-4-3-3-3-4-3-3-3-|-5-4-4-4-5-4-4-4-7-7-7-7-7-7-7-7-
|-4-3-3-3-4-3-3-3-4-3-3-3-4-3-3-3-|-5-4-4-4-5-4-4-4-7-7-7-7-7-7-7-7-


Verse:

|---------------------------------|---------------------------------
|---------------------------------|---------------------------------
|---------------------------------|---------------------------------
|---------------------------------|---------------------------------
|---------------------------------|---------------------------------
|-4-3-3-3-3-3-3-3-3-3-3-3-3-3-3-3-|-6-2-2-2-2-2-2-2-2-2-2-2-2-2-2-2-
									X2
|---------------------------------|---------------------------------
|---------------------------------|---------------------------------
|---------------------------------|---------------------------------
|---------------------------------|---------------------------------
|---------------------------------|---------------------------------
|-4-3-3-3-3-3-3-3-3-3-3-3-3-3-3-3-|-5-4-4-4-4-4-4-4-7-7-7-7-7-7-7-7-


Chorus:

|---------------------------------
|---------------------------------
|---------------------------------
|-8\2-0-12\0-1--8\2-0-12\0-1------					X4
|-8\2-0-12\0-1--8\2-0-12\0-1------
|-8\2-0-12\0-1--8\2-0-12\0-1------


Verse:

|---------------------------------|---------------------------------
|---------------------------------|---------------------------------
|---------------------------------|---------------------------------
|---------------------------------|---------------------------------
|---------------------------------|---------------------------------
|-4-3-3-3-3-3-3-3-3-3-3-3-3-3-3-3-|-6-2-2-2-2-2-2-2-2-2-2-2-2-2-2-2-
									X2
|---------------------------------|---------------------------------
|---------------------------------|---------------------------------
|---------------------------------|---------------------------------
|---------------------------------|---------------------------------
|---------------------------------|---------------------------------
|-4-3-3-3-3-3-3-3-3-3-3-3-3-3-3-3-|-5-4-4-4-4-4-4-4-7-7-7-7-7-7-7-7-


Chorus:

|---------------------------------
|---------------------------------
|---------------------------------
|-8\2-0-12\0-1--8\2-0-12\0-1------					X2
|-8\2-0-12\0-1--8\2-0-12\0-1------
|-8\2-0-12\0-1--8\2-0-12\0-1------


Breakdown:

|---------------------------------|---------------------------------
|---------------------------------|---------------------------------
|---------------------------------|---------------------------------
|---------------------------------|---------------------------------
|---------------------------------|---------------------------------
|-4-3~~~~~~~~~~~~~~~~~~~~~~~~~~~--|-6-2~~~~~~~~~~~~~~~~~~~~~~~~~~~--
									
|---------------------------------|---------------------------------
|---------------------------------|---------------------------------
|---------------------------------|---------------------------------
|---------------------------------|---------------------------------
|---------------------------------|---------------------------------
|-4-3~~~~~~~~~~~~~~~~~~~~~~~~~~~--|-5-4~~~~~~~~~~~~~/7~~~~~~~~~~~~--

|---------------------------------|---------------------------------
|---------------------------------|---------------------------------
|---------------------------------|---------------------------------
|-4-3~~~~~~~~~~~~~~~~~~~~~~~~~~~--|-6-2~~~~~~~~~~~~~~~~~~~~~~~~~~~--
|-4-3~~~~~~~~~~~~~~~~~~~~~~~~~~~--|-6-2~~~~~~~~~~~~~~~~~~~~~~~~~~~--
|-4-3~~~~~~~~~~~~~~~~~~~~~~~~~~~--|-6-2~~~~~~~~~~~~~~~~~~~~~~~~~~~--

|---------------------------------|---------------------------------
|---------------------------------|---------------------------------
|---------------------------------|---------------------------------
|-4-3~~~~~~~~~~~~~~~~~~~~~~~~~~~--|-5-4~~~~~~~~~~~~/7~~~~~~~~~~~~~--
|-4-3~~~~~~~~~~~~~~~~~~~~~~~~~~~--|-5-4~~~~~~~~~~~~/7~~~~~~~~~~~~~--
|-4-3~~~~~~~~~~~~~~~~~~~~~~~~~~~--|-5-4~~~~~~~~~~~~/7~~~~~~~~~~~~~--

|---------------------------------|---------------------------------
|---------------------------------|---------------------------------
|---------------------------------|---------------------------------	
|---------------------------------|---------------------------------
|---------------------------------|---------------------------------
|-4-3-3-3-4-3-3-3-4-3-3-3-4-3-3-3-|-6-2-2-2-6-2-2-2-6-2-2-2-6-2-2-2-

|---------------------------------|---------------------------------
|---------------------------------|---------------------------------
|---------------------------------|---------------------------------	
|---------------------------------|-----------------7---------------
|---------------------------------|-----------------7---------------
|-4-3-3-3-4-3-3-3-4-3-3-3-4-3-3-3-|-5-4-4-4-5-4-4-4-7---------------


Chorus:

Chorus:

|---------------------------------
|---------------------------------
|---------------------------------
|-8\2-0-12\0-1--8\2-0-12\0-1------	Play Till End
|-8\2-0-12\0-1--8\2-0-12\0-1------
|-8\2-0-12\0-1--8\2-0-12\0-1------

End On:

|---------------------------------
|---------------------------------
|---------------------------------
|-0~------------------------------					
|-0~------------------------------
|-0~------------------------------
Tap to rate this tab
 
# A B C D E F G H I J K L M N O P Q R S T U V W X Y Z