Song name
# A B C D E F G H I J K L M N O P Q R S T U V W X Y Z

My Ruin - Silverlake 6571 tab

---------------------------------------------------------------------------
                                   My Ruin

                               Silverlake 65:71
---------------------------------------------------------------------------
            
              |   5 wholes   |
 C:-----------|--------------|---------------|--------------------|
 G:-----------|--------------|---------------|--------------------|
D#:--x-x-x-x--|--------------|---------------|--------------------|
A#:--x-x-x-x--|--------------|---------------|--------------------|
 F:--x-x-x-x--|-3------------|---------------|--------------------|
 C:--x-x-x-x--|-3------------|-3--0---5--0---|-6--5--3--5--6--0---|
                 |  four wholes  ||  3 times   ||
 C:--------------|---------------||------------||-----------------------|
 G:--------------|---------------||o----------o||-----------------------|
D#:--------------|---------------||------15----||-----------------------|
A#:--------------|---------------||------15----||-----------------------|
 F:--------------|---------------||o----------o||-------4--------4----44|
 C:-3--0---5--0--|-6--5--3~~-----||--3-0-------||-5-3-0-2--5-3-0-2--0-22|

 C:---------------------------|---------------------------|
 G:---------------------------|---------------------------|
D#:---------------------------|---------------------------|
A#:---------------------------|---------------------------|
 F:---------------------------|---------------------------|
 C:-3-0---3-0---6-5-3-5-6-0---|-3-0---3-0---6-5-3-5-6-0---|

 C:---------------------------|---------------------------|
 G:---------------------------|---------------------------|
D#:---------------------------|---------------------------|
A#:---------------------------|-------------8-7-5-7-8-----|
 F:---------------------------|-----------------------7---|
 C:-3-0---3-0---6-5-3-5-6-0---|-3-0---3-0-----------------|

 C:---------------------------|---------------------------|
 G:---------------------------|---------------------------|
D#:---------------------------|---------------------------|
A#:---------------------------|---------------------------|
 F:---------------------------|---------------------------|
 C:-3-0---3-0---6-5-3-5-6-0---|-3-0---3-0---6-5-3-5-6-0---|

 C:---------------------------|-------------------------------|
 G:---------------------------|-------------------------------|
D#:---------------------------|-------------------------------|
A#:---------------------------|-------------------------------|
 F:---------------------------|-------------------4--------4--|
 C:-3-0---3-0---6-5-3-5-6-0---|-3-0---3-0---5-3-0-2--5-3-0-2--|

 C:-----------------------------------------------------|
 G:-----------------------------------------------------|
D#:-----------------------------------------------------|
A#:-----------------------------------------5-7-8-7~----|
 F:-------5-7~--------5-7~--------5-7~--5-7-------------|
 C:-3-0---------3-0---------3-0-------------------------|

 C:-----------------------------------------------------|
 G:-----------------------------------------------------|
D#:-----------------------------------------------------|
A#:-----------------------------------------5-7-8-7-5---|
 F:-------5-7~--------5-7~--------5-7~--5-7-------------|
 C:-3-0---------3-0---------3-0-------------------------|
Tap to rate this tab
 
# A B C D E F G H I J K L M N O P Q R S T U V W X Y Z