Song name
# A B C D E F G H I J K L M N O P Q R S T U V W X Y Z

My Satellite - Mirrors tab

Bryan Stage tabbed this very one on his Formspring :)

Verse:
E-12---10---7---5-|
B-----------------|
G-9----7----4---4-|
D-10---9----5---5-|
A-----------------|
E-----------------|


Chords:
E-8-------7----|
B-8-------8----|
G-9-------7----|
D-10------9----|
A--------------|
E--------------|

Bridge:
E-8---5-----|
B-8---5-----|
G-9---2-----|
D-10--2-----|
A-----------|
E-----------|

Check out the band:
http://mysatellitemusic.com/
http://www.myspace.com/mysatellitemusic
Tap to rate this tab
# A B C D E F G H I J K L M N O P Q R S T U V W X Y Z