Song name
# A B C D E F G H I J K L M N O P Q R S T U V W X Y Z

My Silent Wake - Severed tab

Severed
by
My Silent wake

Tabbed by:thrashdeth
Tuning:standard (I think)

Main Riff (play four times)
e|---------------------------------------------------------------------------|
B|--------------------------------------------------------6-5-4--------------|
G|------2----------------------------------2--4-2--1-3/5---------------------|
D|----4----4-2---------------2-4-2------4------------------------------------|
A|-2------------5--5-5-5-5p2-------5-2---------------------------------------|
E|---------------------------------------------------------------------------|

Verse Riff A (play under solo/lead)

e|------------------------------------------------------------------------------|
B|------------------------------------------------------------------------------|
G|------------------------------------------------------------------------------|
D|------------------------------------------------------------------------------|
A|---9---11--6---------9---11--6----------9---11--13------9---11--222222222222--|
E|---7---9---4---------7---9---4----------7---9---11------7---9---000000000000--|
                                                               Pm---------------|

Verse Riff B (play during verse)

e|---------------------------------------------------------------------------|
B|---------------------------------------------------------------------------|
G|---------------------------------------------------------------------------|
D|---------------------------------------------------------------------------|
A|---9---11--6---------9---11--6----------9---11--6------9---11------------2-|
E|---7---9---4---------7---9---4----------7---9---4------7---9---5~-----1~-0-|

Chorus A("and as I pass through the years")

e|---------------------------------------------------------------------------|
B|---------------------------------------------------------------------------|
G|---------------------------------------------------------------------------|
D|-2---5---2----7--5--2---5---2----5--3--2---5---2----7--5--2---5---2--------|
A|-2---5---2----5--3--2---5---2----3--1--2---5---2----5--3--2---5---2--5--3--|
E|-0---3---0----------0---3---0----------0---3---0----------0---3---0--3--1--|

Chorus B("where doubt and fear reside")(play four times)

e|-------------------------------------|
B|-------------------------------------|
G|-------------------------------------|
D|-------------------------------------|
A|-222222222222-1h2h3p1h2h3p2p1--------|
E|-000000000000------------------------|
pm-------------------------------------|

Play Verse riff A
Play Verse Riff B
PLay Chorus A
PLay Chorus B

Bridge A (after 2nd chorus)

e|---------------------------------------------------------------------------|
B|---------------------------------------------------------------------------|
G|---------------------------------------------------------------------------|
D|---------------------------------------------------------------------------|
A|---5-5-5-5---5-5-5-5-5---5-5-5-5-5---5-3-3-3-3---3-5-5-5-5----5-5-5-5-5-etc|
E|---------------------------------------------------------------------------|

Bridge B (directly after: "Have I severed my hope forever?")

e|---------------------------------------------------------------------------|
B|---------------------------------------------------------------------------|
G|---------------------------------------------------------------------------|
D|-7-7-7-7-7-7-7-7-7-7-7-7-5-5-5-5-7-7-7-7-7-7-7-7-7-7-7-7-------------------|
A|-5-5-5-5-5-5-5-5-5-5-5-5-3-3-3-3-5-5-5-5-5-5-5-5-5-5-5-5-------------------|
E|---------------------------------------------------------------------------|

Solo:

e|--------------------------------19---18------------------------------------|
B|-------------------------15-17-----------16~---16-18-19p18-16-16-18-16-----|
G|--16b17----16--16h17p16----------------------------------------------------|
D|---------------------------------------------------------------------------|
A|---------------------------------------------------------------------------|
E|---------------------------------------------------------------------------|

e|---------------------------------------------------------------------------|
B|---------------------------------------------------------------------------|
G|--16-16b17r16b17r16--------------------------------------------------------|
D|-----------------------16-16b17r16b17r16-----------------------------------|
A|-------------------------------------------16-16b17r16p14r16---------------|
E|---------------------------------------------------------------------------|

Post solo:can't figure out.  try some palm muted power chords.


			   b5  c#5 g#5 (chords are part of Riff 7
Riff 7(starts at "it's not too late")

e|---------------------------------------------------------------------------|
B|---------------------------------------------------------------------------|
G|---------------------------------------------------------------------------|
D|---------------------------------------------------------------------------|
A|--8---10--5-----7---9---4-----6---8---3-----5---7---2----------------------|
E|--6---8---3-----5---7---2-----4---6---1-----3---5---0----------------------|

e|---------------------------------------------------------------------------|
B|---------------------------------------------------------------------------|
G|---------------------------------------------------------------------------|
D|---------------------------------------------------------------------------|
A|---------------------------------------------------------------------------|
E|---------------------------------------------------------------------------|



Bass Line:  play the root notes of power chords in chorus A

Play Chorus B
End with Main Riff


Legend:
 /   slide up
 \   slide down
 h   hammer-on
 p   pull-off
 ~   vibrato
 b   Bend
 r   release Bend
pm   palm mute

notes:I and not sure about the end of verse Riff B, but is sounds good.

      after Verse Riff B, there is some slow tapping lick that I can't figure out
      but I think it's on the B string

      I don't know the actual lyrics so I guessed.
	Transcripion is about 96-100% accurate, but there may be errors i didn't catch
Tap to rate this tab
 
# A B C D E F G H I J K L M N O P Q R S T U V W X Y Z