Song name
# A B C D E F G H I J K L M N O P Q R S T U V W X Y Z

My Sleeping Karma - Intention tab

E|--------------------------------------------------------|
B|--------------------------------------------------------|
G|----10-10----------9-9----------------------------------|  x3
D|-10-------------10-----------10-12-12-------10----------|
A|----------------------------------------------12-12-----|
e|--------------------------------------------------------|

E|------------------------------------------------------------------|
B|------------------------------------------------------------------|
G|----10-10---10-10---9-9---9-9-------------------------------------|x2
D|-10-------10------10----10----10-12-12--10-12-12-10------10-------|
A|---------------------------------------------------12-12---12-12--|
e|------------------------------------------------------------------|

E|--------------------------------------|
B|--------------------------------------|                     ---|
G|-10-10-10-10-10-10-10-10-9-9-9-9-9-9--|                        |
D|--------------------------------------|                        |
A|--------------------------------------|                        |
e|--------------------------------------|                        |
                                                                 |one phrase
|-------------------------------------------------------|       |just cut
|-------------------------------------------------------|       |to save
|-------------------------------------------------------|       |space
|-10-10-------------------------------------------------|       |Play 12
|-------12-12-12-12-12-12-10-10/12-12-12-12-12-12-12-12-|    ---|times
|-------------------------------------------------------|

E|--------------------------|
B|-----8------------10------|
G|-7-9---7-9----7-9----7-9--| x8
D|--------------------------|
A|--------------------------|
e|--------------------------|

The last 3 sections are played throughout most of the rest of the song

http://www.mysleepingkarma.eu/index.html
Tap to rate this tab
 
# A B C D E F G H I J K L M N O P Q R S T U V W X Y Z