Song name
# A B C D E F G H I J K L M N O P Q R S T U V W X Y Z

My Sleeping Karma - Glow 11 tab

Tuning-Standard eBGDAE

p=pull off
h=hammer on

You know the intro played by bass is like that on guitar

E-------------------------------------|
A--0-0-0-0-0-0-0-0-0-0-0--------------| etc...
D-------------------------------------|
G-------------------------------------|
B-------------------------------------|
e-------------------------------------|

Same time guitar plays...

E-------------------------------------|
A-------------------------------------|
D------------------3-----3-2----------| like many times.
G--2------2-5-------------------------| listen to the song so you get it..
B-------------------------------------|
e-------------------------------------|

After that plays the same riff but with different ending whish goes like that..

E--------------------------------------------------------|
A--------------------------------------------------------|
D------------3-3-3-2-2-------------3-3-3-3p2p0h2---------| many times
G-2-2-2-5-5-------------2-2-2-5-5------------------------|
B--------------------------------------------------------|
e--------------------------------------------------------|

Next...

e-----------------5-7---7-10-7-5-3-2-3-0------|
B--8-7-5-3-5-0--------------------------------| many times...
G---------------------------------------------|
D---------------------------------------------|
A---------------------------------------------|
E---------------------------------------------|

After..

e----------------------------------------------------------|
B--8-7-5-7-0-5-0----8-7-5-7-0-5-0----8-7-5-7-0-5-0---------|
G----------------------------------------------------------|
D----------------------------------------------------------|
A----------------------------------------------------------|
E----------------------------------------------------------|

And for the ending after interlude..

e-------------------------------------------------------------|
B-------------------------------------------------------------|
G-------------------------------------------------------------|
D-------------------------------------------------------------|
A---77777777777------555555-----7777777777----555555----------|
E-------------------------------------------------------------|

For the ending don't count how many 7 and 5 are..just listen to the song so you 
understand..! Thanks for your time and i hope you like it!Cheers!
Tap to rate this tab
# A B C D E F G H I J K L M N O P Q R S T U V W X Y Z