Song name
# A B C D E F G H I J K L M N O P Q R S T U V W X Y Z

My Sweet Disaster - Its Not So Perfect tab

My Sweet Disaster - "It's not so perfect" tab
band music at www.soundclick.com/mysweetdisaster
tabbed by nick gwinn

verse
|-----------------------
|-----------------------
|----9----9----5----7---
|----9----11---7----9---
|----7----11---7----9---
|----7----9----5----7---



chorus (just strum hard)
|-----------------------
|-----------------------
|----9----9----5----7---
|----9----11---7----9---
|----7----11---7----9---
|----7----9----5----7---




ok thats it just strum that to the song with the correct muting and you have it
any question or comments?...email at thisisgump@hotmail.com
Tap to rate this tab
# A B C D E F G H I J K L M N O P Q R S T U V W X Y Z