Song name
# A B C D E F G H I J K L M N O P Q R S T U V W X Y Z

My Sweet Disaster - The Infamous Untitled Song tab

My Sweet Disaster - "Untitled"
tabbed by nick gwinn

intro (X2) 
|------------------     |-----------------
|------------------     |-----------------
|------------------     |-----------------
|-----8---8---8-8--     |------4--4---4-4-
|----9---9---9-----(x2) |-----5--5--5-----(x2)
|--7---------------     |---3-------------

part1
|---7----7--------3----3----
|---7----7--------3----3----
|---7----7--------3----3----
|---8----8--------4----4----
|---9----9--------5----5----
|---7----7--------3----3---- just strum those 

--a little mute scratchy thing---
then...

part2
|---7----9----5----7---
|---7----9----5----7---
|---9----9----5----7---
|---9----11---7----9---
|---7----11---7----9---
|---7----9----5----7---

alright that should be it....sorry about the lack of strum pattern...
i dont have time to type it all out...send your questions to thisisgump@hotmail.com
Tap to rate this tab
# A B C D E F G H I J K L M N O P Q R S T U V W X Y Z