Song name
# A B C D E F G H I J K L M N O P Q R S T U V W X Y Z

My Sweet Disaster - First Place tab

My Sweet Disaster - "first place"
tabbed by nick gwinn

intro/verse
|-------------------
|-------------------
|----9--------------
|----9---6---4---7--
|----7---6---4---7--
|--------4---2---5--


Chorus
|--4---4---5---2----
|--5---4---5---2----
|--4---5---6---3----
|--6---4---5---2----
|--4---6---7---4----
|--4---4---5---2---- at the end of the chorus you strum the same chorus chords


bridge....use the chords and just pick them down....simple

im sure you can listen to the strumming and figure it out
music at www.soundclick.com/mysweetdisaster
Tap to rate this tab
 
# A B C D E F G H I J K L M N O P Q R S T U V W X Y Z