Song name
# A B C D E F G H I J K L M N O P Q R S T U V W X Y Z

My Sweet Disaster - The Day We Met tab

My Sweet Disaster - "the day we met"
tabbed by nick gwinn

intro
(strum into the hammer-ons)
|----------------------------
|----------------------------
|----------------------------
|--8h9-----------------------
|--9----8h9--6h7--8h9--------
|--7----9----7----9---------- 

verses/chorus(just strum X3)
|-----------------------
|-----------------------
|-----------------------
|--9--------------------
|--9----9----7----9-----
|--7----9----7----9-----


music at www.soundclick.com/mysweetdisaster
email at thisisgump@hotmail.com
Tap to rate this tab
# A B C D E F G H I J K L M N O P Q R S T U V W X Y Z