Song name
# A B C D E F G H I J K L M N O P Q R S T U V W X Y Z

My Teenage Stride - To Live And Die In The Airport Lounge tab

Pattern 1:
e|--------------------------------------|
B|--------------------------------------|
G|--------------------------------------|
D|---10--10--10---10----10--10--10---10-|
A|--8---8---8---8------7---7---7---7----|
E|--------------------------------------|

E|--------------------------------------|
B|--------------------------------------|
G|--------------------------------------|
D|---8---8---8---8----8---8---8---8-----|
A|--6---6---6--6-----5---5---5--5-------|
E|--------------------------------------|


~~~~~~~~~~~~~~~~~~~~~~~~~~~~~~~~~~~~~~~~~~~~~~~~


Pattern 2:
e|----------------------------------------|
B|----------------------------------------|
G|----------------------------------------|
D|---10--10--10-12-10----10--10--10-12-10-|
A|--8---8---8-----------7---7---7---------|
E|----------------------------------------|

E|----------------------------------------|
B|----------------------------------------|
G|----------------------------------------|
D|---8---8---8-10-8----8---8---8-10-8-----|
A|--6---6---6---------5---5---5-----------|
E|----------------------------------------|


Tap to rate this tab
 
# A B C D E F G H I J K L M N O P Q R S T U V W X Y Z